  0
SECTION
  2
HEADER
  9
$LIMMIN
 10
59.439636
 20
66.656006
  9
$LIMMAX
 10
133.595184
 20
96.656006
  9
$EXTMIN
 10
59.439636
 20
66.656006
  9
$EXTMAX
 10
133.595184
 20
96.656006
  0
ENDSEC
  0
SECTION
  2
TABLES
  0
TABLE
  2
LTYPE
 70
     3
  0
LTYPE
  2
CONTINUOUS
 70
    64
  3
Ausgezogene Linie
 72
    65
 73
     0
 40
0.0
  0
LTYPE
  2
DASHED
 70
    64
  3
__ __ __ __ __ __ __ __ __ __ __ __ __ __ __
 72
    65
 73
     2
 40
0.75
 49
0.5
 49
-0.25
  0
LTYPE
  2
DASHDOT
 70
    64
  3
__ . __ . __ . __ . __ . __ . __ . __ . __ . __
 72
    65
 73
     4
 40
1.0
 49
0.5
 49
-0.25
 49
0.0
 49
-0.25
  0
ENDTAB
  0
TABLE
  2
LAYER
 70
     4
  0
LAYER
  2
LC-003-002-----0
 70
    64
 62
     7
  6
CONTINUOUS
  0
LAYER
  2
LC-005-002-RND-0
 70
    64
 62
     7
  6
CONTINUOUS
  0
LAYER
  2
LC-004-006-----0
 70
    64
 62
     7
  6
CONTINUOUS
  0
LAYER
  2
LC-006-012-----0
 70
    64
 62
     7
  6
CONTINUOUS
  0
ENDTAB
  0
TABLE
  2
STYLE
 70
     1
  0
STYLE
  2
TXT8
 70
    64
 40
0.0
 41
1.0
 50
0.0
 71
     0
 42
3.500000
  3
TXT8
  4

  0
ENDTAB
  0
ENDSEC
  0
SECTION
  2
BLOCKS
  0
ENDSEC
  0
SECTION
  2
ENTITIES
  0
LINE
  8
LC-005-002-RND-0
 62
     2
  6
DASHDOT
 10
59.439636
 20
81.656006
 11
133.595184
 21
81.656006
  0
LINE
  8
LC-003-002-----0
 62
     1
  6
CONTINUOUS
 10
76.429436
 20
96.656006
 11
116.429436
 21
96.656006
  0
LINE
  8
LC-003-002-----0
 62
     1
  6
CONTINUOUS
 10
76.429436
 20
66.656006
 11
116.429436
 21
66.656006
  0
LINE
  8
LC-003-002-----0
 62
     1
  6
CONTINUOUS
 10
75.429436
 20
95.656006
 11
75.429436
 21
67.656006
  0
LINE
  8
LC-003-002-----0
 62
     1
  6
CONTINUOUS
 10
117.429436
 20
95.656006
 11
117.429436
 21
67.656006
  0
ARC
  8
LC-003-002-----0
 62
     1
  6
CONTINUOUS
 10
76.429436
 20
95.656006
 40
1.000000
 50
90.000003
 51
180.000009
  0
ARC
  8
LC-003-002-----0
 62
     1
  6
CONTINUOUS
 10
76.429436
 20
67.656006
 40
1.000000
 50
180.000009
 51
269.999997
  0
ARC
  8
LC-003-002-----0
 62
     1
  6
CONTINUOUS
 10
116.429436
 20
67.656006
 40
1.000000
 50
269.999997
 51
0.000000
  0
ARC
  8
LC-003-002-----0
 62
     1
  6
CONTINUOUS
 10
116.429436
 20
95.656006
 40
1.000000
 50
0.000000
 51
90.000003
  0
LINE
  8
LC-003-002-----0
 62
     1
  6
CONTINUOUS
 10
63.004852
 20
91.656006
 11
75.429436
 21
91.656006
  0
LINE
  8
LC-003-002-----0
 62
     1
  6
CONTINUOUS
 10
61.493111
 20
71.656006
 11
75.429436
 21
71.656006
  0
LINE
  8
LC-006-012-----0
 62
     2
  6
CONTINUOUS
 10
61.493111
 20
71.656006
 11
61.273262
 21
77.287605
  0
LINE
  8
LC-006-012-----0
 62
     2
  6
CONTINUOUS
 10
61.273262
 20
77.287605
 11
62.910145
 21
86.512161
  0
LINE
  8
LC-006-012-----0
 62
     2
  6
CONTINUOUS
 10
62.910145
 20
86.512161
 11
63.004852
 21
91.656006
  0
LINE
  8
LC-006-012-----0
 62
     2
  6
CONTINUOUS
 10
131.144409
 20
71.656006
 11
131.556946
 21
76.230141
  0
LINE
  8
LC-006-012-----0
 62
     2
  6
CONTINUOUS
 10
131.556946
 20
76.230141
 11
130.636200
 21
86.436630
  0
LINE
  8
LC-006-012-----0
 62
     2
  6
CONTINUOUS
 10
130.636200
 20
86.436630
 11
130.862183
 21
91.656006
  0
LINE
  8
LC-004-006-----0
 62
     2
  6
DASHED
 10
75.429436
 20
91.656006
 11
117.429436
 21
91.656006
  0
LINE
  8
LC-003-002-----0
 62
     1
  6
CONTINUOUS
 10
117.429436
 20
91.656006
 11
130.862183
 21
91.656006
  0
LINE
  8
LC-004-006-----0
 62
     2
  6
DASHED
 10
75.429436
 20
71.656006
 11
117.429436
 21
71.656006
  0
LINE
  8
LC-003-002-----0
 62
     1
  6
CONTINUOUS
 10
117.429436
 20
71.656006
 11
131.144409
 21
71.656006
  0
ENDSEC
  0
EOF
