  0
SECTION
  2
HEADER
  9
$LIMMIN
 10
292.352875
 20
54.631977
  9
$LIMMAX
 10
608.729797
 20
179.280746
  9
$EXTMIN
 10
292.352875
 20
54.631977
  9
$EXTMAX
 10
608.729797
 20
179.280746
  0
ENDSEC
  0
SECTION
  2
TABLES
  0
TABLE
  2
LTYPE
 70
     3
  0
LTYPE
  2
CONTINUOUS
 70
    64
  3
Ausgezogene Linie
 72
    65
 73
     0
 40
0.0
  0
LTYPE
  2
DASHED
 70
    64
  3
__ __ __ __ __ __ __ __ __ __ __ __ __ __ __
 72
    65
 73
     2
 40
0.75
 49
0.5
 49
-0.25
  0
LTYPE
  2
DASHDOT
 70
    64
  3
__ . __ . __ . __ . __ . __ . __ . __ . __ . __
 72
    65
 73
     4
 40
1.0
 49
0.5
 49
-0.25
 49
0.0
 49
-0.25
  0
ENDTAB
  0
TABLE
  2
LAYER
 70
     4
  0
LAYER
  2
LC-003-002-----0
 70
    64
 62
     7
  6
CONTINUOUS
  0
LAYER
  2
LC-004-006-----0
 70
    64
 62
     7
  6
CONTINUOUS
  0
LAYER
  2
LC-006-012-----0
 70
    64
 62
     7
  6
CONTINUOUS
  0
LAYER
  2
LC-005-002-RND-0
 70
    64
 62
     7
  6
CONTINUOUS
  0
ENDTAB
  0
TABLE
  2
STYLE
 70
     1
  0
STYLE
  2
TXT8
 70
    64
 40
0.0
 41
1.0
 50
0.0
 71
     0
 42
3.500000
  3
TXT8
  4

  0
ENDTAB
  0
ENDSEC
  0
SECTION
  2
BLOCKS
  0
ENDSEC
  0
SECTION
  2
ENTITIES
  0
LINE
  8
LC-004-006-----0
 62
     2
  6
DASHDOT
 10
292.352875
 20
118.204460
 11
455.239227
 21
118.204460
  0
LINE
  8
LC-003-002-----0
 62
     1
  6
CONTINUOUS
 10
333.983643
 20
155.704453
 11
418.733643
 21
155.704453
  0
LINE
  8
LC-003-002-----0
 62
     1
  6
CONTINUOUS
 10
333.983643
 20
80.704460
 11
418.733643
 21
80.704460
  0
LINE
  8
LC-003-002-----0
 62
     1
  6
CONTINUOUS
 10
320.983643
 20
174.204453
 11
331.983643
 21
174.204453
  0
LINE
  8
LC-003-002-----0
 62
     1
  6
CONTINUOUS
 10
320.983643
 20
62.204460
 11
331.983643
 21
62.204460
  0
LINE
  8
LC-003-002-----0
 62
     1
  6
CONTINUOUS
 10
319.983643
 20
173.204453
 11
319.983643
 21
63.204468
  0
LINE
  8
LC-003-002-----0
 62
     1
  6
CONTINUOUS
 10
332.983643
 20
63.204460
 11
332.983643
 21
173.204453
  0
LINE
  8
LC-003-002-----0
 62
     1
  6
CONTINUOUS
 10
419.983643
 20
154.454453
 11
419.983643
 21
81.954468
  0
LINE
  8
LC-003-002-----0
 62
     1
  6
CONTINUOUS
 10
298.994446
 20
143.204453
 11
319.983643
 21
143.204453
  0
LINE
  8
LC-003-002-----0
 62
     1
  6
CONTINUOUS
 10
297.154297
 20
93.204460
 11
319.983643
 21
93.204460
  0
LINE
  8
LC-005-002-RND-0
 62
     2
  6
CONTINUOUS
 10
297.154297
 20
93.204460
 11
296.661377
 21
101.218414
  0
LINE
  8
LC-005-002-RND-0
 62
     2
  6
CONTINUOUS
 10
296.661377
 20
101.218414
 11
299.068329
 21
112.460953
  0
LINE
  8
LC-005-002-RND-0
 62
     2
  6
CONTINUOUS
 10
299.068329
 20
112.460953
 11
297.180023
 21
129.197113
  0
LINE
  8
LC-005-002-RND-0
 62
     2
  6
CONTINUOUS
 10
297.180023
 20
129.197113
 11
298.994446
 21
143.204453
  0
LINE
  8
LC-005-002-RND-0
 62
     2
  6
CONTINUOUS
 10
451.826569
 20
93.204460
 11
452.473267
 21
100.707878
  0
LINE
  8
LC-005-002-RND-0
 62
     2
  6
CONTINUOUS
 10
452.473267
 20
100.707878
 11
450.412079
 21
113.104446
  0
LINE
  8
LC-005-002-RND-0
 62
     2
  6
CONTINUOUS
 10
450.412079
 20
113.104446
 11
451.781769
 21
129.452393
  0
LINE
  8
LC-005-002-RND-0
 62
     2
  6
CONTINUOUS
 10
451.781769
 20
129.452393
 11
450.550934
 21
143.204453
  0
LINE
  8
LC-006-012-----0
 62
     2
  6
DASHED
 10
319.983643
 20
143.204453
 11
419.983643
 21
143.204453
  0
LINE
  8
LC-003-002-----0
 62
     1
  6
CONTINUOUS
 10
419.983643
 20
143.204453
 11
450.550934
 21
143.204453
  0
LINE
  8
LC-006-012-----0
 62
     2
  6
DASHED
 10
319.983643
 20
93.204460
 11
419.983643
 21
93.204460
  0
LINE
  8
LC-003-002-----0
 62
     1
  6
CONTINUOUS
 10
419.983643
 20
93.204460
 11
451.826569
 21
93.204460
  0
LINE
  8
LC-004-006-----0
 62
     2
  6
DASHDOT
 10
485.239227
 20
118.204460
 11
608.729797
 21
118.204460
  0
LINE
  8
LC-004-006-----0
 62
     2
  6
DASHDOT
 10
546.311951
 20
179.280746
 11
546.311951
 21
54.631977
  0
CIRCLE
  8
LC-003-002-----0
 62
     1
  6
CONTINUOUS
 10
546.311951
 20
118.204460
 40
25.000000
  0
CIRCLE
  8
LC-003-002-----0
 62
     1
  6
CONTINUOUS
 10
546.311951
 20
118.204460
 40
56.000000
  0
CIRCLE
  8
LC-006-012-----0
 62
     2
  6
DASHED
 10
546.311951
 20
118.204460
 40
37.500000
  0
CIRCLE
  8
LC-004-006-----0
 62
     2
  6
DASHDOT
 10
546.311951
 20
118.204460
 40
47.000000
  0
CIRCLE
  8
LC-003-002-----0
 62
     1
  6
CONTINUOUS
 10
546.311951
 20
165.204453
 40
7.500000
  0
CIRCLE
  8
LC-003-002-----0
 62
     1
  6
CONTINUOUS
 10
546.311951
 20
165.204453
 40
4.500000
  0
CIRCLE
  8
LC-003-002-----0
 62
     1
  6
CONTINUOUS
 10
499.311951
 20
118.204460
 40
4.500000
  0
CIRCLE
  8
LC-003-002-----0
 62
     1
  6
CONTINUOUS
 10
499.311951
 20
118.204460
 40
7.500000
  0
CIRCLE
  8
LC-003-002-----0
 62
     1
  6
CONTINUOUS
 10
546.311951
 20
71.204460
 40
7.500000
  0
CIRCLE
  8
LC-003-002-----0
 62
     1
  6
CONTINUOUS
 10
546.311951
 20
71.204460
 40
4.500000
  0
CIRCLE
  8
LC-003-002-----0
 62
     1
  6
CONTINUOUS
 10
593.311951
 20
118.204460
 40
4.500000
  0
CIRCLE
  8
LC-003-002-----0
 62
     1
  6
CONTINUOUS
 10
593.311951
 20
118.204460
 40
7.500000
  0
LINE
  8
LC-004-006-----0
 62
     2
  6
DASHDOT
 10
337.105316
 20
165.204453
 11
314.098969
 21
165.204453
  0
LINE
  8
LC-006-012-----0
 62
     2
  6
DASHED
 10
328.983643
 20
172.704453
 11
319.983643
 21
172.704453
  0
LINE
  8
LC-006-012-----0
 62
     2
  6
DASHED
 10
332.983643
 20
169.704453
 11
328.983643
 21
169.704453
  0
LINE
  8
LC-006-012-----0
 62
     2
  6
DASHED
 10
328.983643
 20
172.704453
 11
328.983643
 21
157.704453
  0
LINE
  8
LC-006-012-----0
 62
     2
  6
DASHED
 10
332.983643
 20
160.704453
 11
328.983643
 21
160.704453
  0
LINE
  8
LC-006-012-----0
 62
     2
  6
DASHED
 10
328.983643
 20
157.704453
 11
319.983643
 21
157.704453
  0
LINE
  8
LC-004-006-----0
 62
     2
  6
DASHDOT
 10
337.105316
 20
71.204460
 11
314.098969
 21
71.204460
  0
LINE
  8
LC-006-012-----0
 62
     2
  6
DASHED
 10
328.983643
 20
63.704460
 11
319.983643
 21
63.704460
  0
LINE
  8
LC-006-012-----0
 62
     2
  6
DASHED
 10
332.983643
 20
66.704460
 11
328.983643
 21
66.704460
  0
LINE
  8
LC-006-012-----0
 62
     2
  6
DASHED
 10
328.983643
 20
63.704460
 11
328.983643
 21
78.704460
  0
LINE
  8
LC-006-012-----0
 62
     2
  6
DASHED
 10
332.983643
 20
75.704460
 11
328.983643
 21
75.704460
  0
LINE
  8
LC-006-012-----0
 62
     2
  6
DASHED
 10
328.983643
 20
78.704460
 11
319.983643
 21
78.704460
  0
LINE
  8
LC-006-012-----0
 62
     2
  6
DASHED
 10
328.983643
 20
125.704460
 11
319.983643
 21
125.704460
  0
LINE
  8
LC-006-012-----0
 62
     2
  6
DASHED
 10
332.983643
 20
122.704460
 11
328.983643
 21
122.704460
  0
LINE
  8
LC-006-012-----0
 62
     2
  6
DASHED
 10
328.983643
 20
125.704460
 11
328.983643
 21
110.704460
  0
LINE
  8
LC-006-012-----0
 62
     2
  6
DASHED
 10
332.983643
 20
113.704460
 11
328.983643
 21
113.704460
  0
LINE
  8
LC-006-012-----0
 62
     2
  6
DASHED
 10
328.983643
 20
110.704460
 11
319.983643
 21
110.704460
  0
ARC
  8
LC-003-002-----0
 62
     1
  6
CONTINUOUS
 10
418.733643
 20
154.454453
 40
1.250000
 50
0.000000
 51
90.000003
  0
ARC
  8
LC-003-002-----0
 62
     1
  6
CONTINUOUS
 10
418.733643
 20
81.954460
 40
1.250000
 50
269.999997
 51
0.000000
  0
LINE
  8
LC-003-002-----0
 62
     1
  6
CONTINUOUS
 10
320.983643
 20
62.204460
 11
319.983643
 21
63.204460
  0
LINE
  8
LC-003-002-----0
 62
     1
  6
CONTINUOUS
 10
320.983643
 20
174.204453
 11
319.983643
 21
173.204453
  0
LINE
  8
LC-003-002-----0
 62
     1
  6
CONTINUOUS
 10
320.983643
 20
62.204460
 11
320.983643
 21
174.204453
  0
LINE
  8
LC-003-002-----0
 62
     1
  6
CONTINUOUS
 10
331.983643
 20
174.204453
 11
332.983643
 21
173.204453
  0
LINE
  8
LC-003-002-----0
 62
     1
  6
CONTINUOUS
 10
331.983643
 20
62.204460
 11
332.983643
 21
63.204460
  0
LINE
  8
LC-003-002-----0
 62
     1
  6
CONTINUOUS
 10
331.983643
 20
174.204453
 11
331.983643
 21
62.204468
  0
LINE
  8
LC-003-002-----0
 62
     1
  6
CONTINUOUS
 10
333.983643
 20
80.704460
 11
333.983643
 21
155.704453
  0
LINE
  8
LC-003-002-----0
 62
     1
  6
CONTINUOUS
 10
332.983643
 20
81.704460
 11
333.983643
 21
81.704460
  0
LINE
  8
LC-003-002-----0
 62
     1
  6
CONTINUOUS
 10
332.983643
 20
154.704453
 11
333.983643
 21
154.704453
  0
CIRCLE
  8
LC-003-002-----0
 62
     1
  6
CONTINUOUS
 10
546.311951
 20
118.204460
 40
55.000000
  0
ENDSEC
  0
EOF
