  0
SECTION
  2
HEADER
  9
$ACADVER
  1
AC1014
  9
$ACADMAINTVER
 70
           0
  9
$DWGCODEPAGE
  3
DOS850
  9
$INSBASE
 10
0.0
 20
0.0
 30
0.0
  9
$EXTMIN
 10
48.555855
 20
234.800751
 30
0.0
  9
$EXTMAX
 10
293.669281
 20
294.584167
 30
0.0
  9
$LIMMIN
 10
48.555855
 20
234.800751
  9
$LIMMAX
 10
293.669281
 20
294.584167
  9
$ORTHOMODE
 70
           0
  9
$REGENMODE
 70
           1
  9
$FILLMODE
 70
           1
  9
$QTEXTMODE
 70
           0
  9
$MIRRTEXT
 70
           1
  9
$DRAGMODE
 70
           2
  9
$LTSCALE
 40
5.0
  9
$OSMODE
 70
           0
  9
$ATTMODE
 70
           1
  9
$TEXTSIZE
 40
0.2
  9
$TRACEWID
 40
0.05
  9
$TEXTSTYLE
  7
TXT
  9
$CLAYER
  8
0
  9
$CELTYPE
  6
CONTINUOUS
  9
$CECOLOR
 62
         256
  9
$CELTSCALE
 40
1.0
  9
$DELOBJ
 70
           1
  9
$DISPSILH
 70
           0
  9
$DIMSCALE
 40
1.0
  9
$DIMASZ
 40
3.5
  9
$DIMEXO
 40
0.0625
  9
$DIMDLI
 40
0.38
  9
$DIMRND
 40
0.0
  9
$DIMDLE
 40
0.0
  9
$DIMEXE
 40
0.18
  9
$DIMTP
 40
0.0
  9
$DIMTM
 40
0.0
  9
$DIMTXT
 40
3.5
  9
$DIMCEN
 40
0.09
  9
$DIMTSZ
 40
0.0
  9
$DIMTOL
 70
           0
  9
$DIMLIM
 70
           0
  9
$DIMTIH
 70
           1
  9
$DIMTOH
 70
           1
  9
$DIMSE1
 70
           0
  9
$DIMSE2
 70
           0
  9
$DIMTAD
 70
           0
  9
$DIMZIN
 70
           0
  9
$DIMBLK
  1

  9
$DIMASO
 70
           1
  9
$DIMSHO
 70
           1
  9
$DIMPOST
  1

  9
$DIMAPOST
  1

  9
$DIMALT
 70
           0
  9
$DIMALTD
 70
           2
  9
$DIMALTF
 40
25.4
  9
$DIMLFAC
 40
1.0
  9
$DIMTOFL
 70
           0
  9
$DIMTVP
 40
0.0
  9
$DIMTIX
 70
           0
  9
$DIMSOXD
 70
           0
  9
$DIMSAH
 70
           0
  9
$DIMBLK1
  1

  9
$DIMBLK2
  1

  9
$DIMSTYLE
  2
STANDARD
  9
$DIMCLRD
 70
           0
  9
$DIMCLRE
 70
           0
  9
$DIMCLRT
 70
           0
  9
$DIMTFAC
 40
1.0
  9
$DIMGAP
 40
0.09
  9
$DIMJUST
 70
           0
  9
$DIMSD1
 70
           0
  9
$DIMSD2
 70
           0
  9
$DIMTOLJ
 70
           1
  9
$DIMTZIN
 70
           0
  9
$DIMALTZ
 70
           0
  9
$DIMALTTZ
 70
           0
  9
$DIMFIT
 70
           3
  9
$DIMUPT
 70
           0
  9
$DIMUNIT
 70
           2
  9
$DIMDEC
 70
           4
  9
$DIMTDEC
 70
           4
  9
$DIMALTU
 70
           2
  9
$DIMALTTD
 70
           2
  9
$DIMTXSTY
  7
TXT
  9
$DIMAUNIT
 70
           0
  9
$LUNITS
 70
           2
  9
$LUPREC
 70
           2
  9
$SKETCHINC
 40
0.1
  9
$FILLETRAD
 40
0.0
  9
$AUNITS
 70
           0
  9
$AUPREC
 70
           2
  9
$MENU
  1
acad
  9
$ELEVATION
 40
0.0
  9
$PELEVATION
 40
0.0
  9
$THICKNESS
 40
0.0
  9
$LIMCHECK
 70
           0
  9
$BLIPMODE
 70
           1
  9
$CHAMFERA
 40
0.0
  9
$CHAMFERB
 40
0.0
  9
$CHAMFERC
 40
0.0
  9
$CHAMFERD
 40
0.0
  9
$SKPOLY
 70
           0
  9
$TDCREATE
 40
0.000000000
  9
$TDUPDATE
 40
0.000000000
  9
$TDINDWG
 40
0.0000000000
  9
$TDUSRTIMER
 40
0.0000000000
  9
$USRTIMER
 70
           1
  9
$ANGBASE
 50
0.0
  9
$ANGDIR
 70
           0
  9
$PDMODE
 70
           2
  9
$PDSIZE
 40
0.5
  9
$PLINEWID
 40
0.0
  9
$COORDS
 70
           0
  9
$SPLFRAME
 70
           0
  9
$SPLINETYPE
 70
           6
  9
$SPLINESEGS
 70
           8
  9
$ATTDIA
 70
           0
  9
$ATTREQ
 70
           1
  9
$HANDLING
 70
           1
  9
$HANDSEED
  5
F6
  9
$SURFTAB1
 70
           6
  9
$SURFTAB2
 70
           6
  9
$SURFTYPE
 70
           6
  9
$SURFU
 70
           6
  9
$SURFV
 70
           6
  9
$UCSNAME
  2

  9
$UCSORG
 10
0.0
 20
0.0
 30
0.0
  9
$UCSXDIR
 10
1.0
 20
0.0
 30
0.0
  9
$UCSYDIR
 10
0.0
 20
1.0
 30
0.0
  9
$PUCSNAME
  2

  9
$PUCSORG
 10
0.0
 20
0.0
 30
0.0
  9
$PUCSXDIR
 10
1.0
 20
0.0
 30
0.0
  9
$PUCSYDIR
 10
0.0
 20
1.0
 30
0.0
  9
$USERI1
 70
           0
  9
$USERI2
 70
           0
  9
$USERI3
 70
           0
  9
$USERI4
 70
           0
  9
$USERI5
 70
           0
  9
$USERR1
 40
0.0
  9
$USERR2
 40
0.0
  9
$USERR3
 40
0.0
  9
$USERR4
 40
0.0
  9
$USERR5
 40
0.0
  9
$WORLDVIEW
 70
           1
  9
$SHADEDGE
 70
           3
  9
$SHADEDIF
 70
          70
  9
$TILEMODE
 70
           1
  9
$MAXACTVP
 70
          16
  9
$PINSBASE
 10
0.0
 20
0.0
 30
0.0
  9
$PLIMCHECK
 70
           0
  9
$PEXTMIN
 10
1.000000000000E+20
 20
1.000000000000E+20
 30
1.000000000000E+20
  9
$PEXTMAX
 10
-1.000000000000E+20
 20
-1.000000000000E+20
 30
-1.000000000000E+20
  9
$PLIMMIN
 10
0.0
 20
0.0
  9
$PLIMMAX
 10
12.0
 20
9.0
  9
$UNITMODE
 70
           0
  9
$VISRETAIN
 70
           0
  9
$PLINEGEN
 70
           1
  9
$PSLTSCALE
 70
           0
  9
$TREEDEPTH
 70
        3020
  9
$PICKSTYLE
 70
           1
  9
$CMLSTYLE
  2
STANDARD
  9
$CMLJUST
 70
           0
  9
$CMLSCALE
 40
1.0
  9
$PROXYGRAPHICS
 70
           0
  9
$MEASUREMENT
 70
           0
  0
ENDSEC
  0
SECTION
  2
CLASSES
  0
CLASS
  1
LWPOLYLINE
  2
AcDbPolyline
  3
"AutoCAD"
 90
        0
280
           0
281
           1
  0
CLASS
  1
IMAGE
  2
AcDbRasterImage
  3
ISM
 90
      127
280
           0
281
           1
  0
CLASS
  1
OLE2FRAME
  2
AcDbOle2Frame
  3
""
 90
        0
280
           0
281
           1
  0
CLASS
  1
HATCH
  2
AcDbHatch
  3
"ACAD_SEDONA"
 90
        0
280
           0
281
           1
  0
CLASS
  1
DICTIONARYVAR
  2
AcDbDictionaryVar
  3
"AutoCAD"
 90
        0
280
           0
281
           0
  0
CLASS
  1
RASTERVARIABLES
  2
AcDbRasterVariables
  3
ISM
 90
        0
280
           0
281
           0
  0
CLASS
  1
IMAGEDEF
  2
AcDbRasterImageDef
  3
ISM
 90
        0
280
           0
281
           0
  0
CLASS
  1
IMAGEDEF_REACTOR
  2
AcDbRasterImageDefReactor
  3
ISM
 90
        1
280
           0
281
           0
  0
CLASS
  1
IDBUFFER
  2
AcDbIdBuffer
  3
"Acad"
 90
        0
280
           0
281
           0
  0
CLASS
  1
SPATIAL_FILTER
  2
AcDbSpatialFilter
  3
"Acad"
 90
        0
280
           0
281
           0
  0
CLASS
  1
XRECORD
  2
AcDbXrecord
  3
"<Built In>"
 90
        0
280
           0
281
           0
  0
CLASS
  1
SORTENTSTABLE
  2
AcDbSortentsTable
  3
"AutoCAD"
 90
        0
280
           0
281
           0
  0
CLASS
  1
LAYER_INDEX
  2
AcDbLayerIndex
  3
"Acad"
 90
        0
280
           0
281
           0
  0
CLASS
  1
SPATIAL_INDEX
  2
AcDbSpatialIndex
  3
"Acad"
 90
        0
280
           0
281
           0
  0
CLASS
  1
OBJECT_PTR
  2
CAseDLPNTableRecord
  3
"ASE-LPNTableRecord"
 90
        1
280
           0
281
           0
  0
CLASS
  1
LAYOUT
  2
AcDbLayout
  3
"AutoCAD 2000"
 90
        1
280
           0
281
           0
  0
CLASS
  1
PLOTSETTINGS
  2
AcDbPlotSettings
  3
"AutoCAD 2000"
 90
        1
280
           0
281
           0
  0
CLASS
  1
ACDBDICTIONARYWDFLT
  2
AcDbDictionaryWithDefault
  3
"AutoCAD 2000"
 90
        1
280
           0
281
           0
  0
CLASS
  1
ACDBPLACEHOLDER
  2
AcDbPlaceHolder
  3
"AutoCAD 2000"
 90
        1
280
           0
281
           0
  0
CLASS
  1
VBA_PROJECT
  2
AcDbVbaProject
  3
"acadvba"
 90
        1
280
           0
281
           0
  0
CLASS
  1
WIPEOUT
  2
AcDbWipeout
  3
WipeOut|AutoCAD Express Tool|expresstools@autodesk.com
 90
      127
280
           0
281
           1
  0
CLASS
  1
WIPEOUTVARIABLES
  2
AcDbWipeoutVariables
  3
WipeOut|AutoCAD Express Tool|expresstools@autodesk.com
 90
        0
280
           0
281
           0
  0
CLASS
  1
RTEXT
  2
RText
  3
RText|AutoCAD Express Tool|expresstools@autodesk.com
 90
        0
280
           0
281
           1
  0
CLASS
  1
ARCALIGNEDTEXT
  2
AcDbArcAlignedText
  3
ATEXT|AutoCAD Express Tool|expresstools@autodesk.com
 90
        0
280
           0
281
           1
  0
ENDSEC
  0
SECTION
  2
TABLES
  0
TABLE
  2
VPORT
  5
7
100
AcDbSymbolTable
 70
           1
  0
VPORT
  5
15
100
AcDbSymbolTableRecord
100
AcDbViewportTableRecord
  2
*ACTIVE
 70
           0
 10
0.0
 20
0.0
 11
1.0
 21
1.0
 12
6.591288
 22
4.579184
 13
0.0
 23
0.0
 14
1.0
 24
1.0
 15
0.0
 25
0.0
 16
0.0
 26
0.0
 36
1.0
 17
0.0
 27
0.0
 37
0.0
 40
9.158369
 41
0.688564
 42
50.0
 43
0.0
 44
0.0
 50
0.0
 51
0.0
 71
           0
 72
         100
 73
           1
 74
           1
 75
           0
 76
           0
 77
           0
 78
           0
  0
ENDTAB
  0
TABLE
  2
LTYPE
  5
4
100
AcDbSymbolTable
 70
           6
  0
LTYPE
  5
11
100
AcDbSymbolTableRecord
100
AcDbLinetypeTableRecord
  2
BYBLOCK
 70
          64
  3

 72
          65
 73
           0
 40
0.0
  0
LTYPE
  5
12
100
AcDbSymbolTableRecord
100
AcDbLinetypeTableRecord
  2
BYLAYER
 70
          64
  3

 72
          65
 73
           0
 40
0.0
  0
LTYPE
  5
13
100
AcDbSymbolTableRecord
100
AcDbLinetypeTableRecord
  2
CONTINUOUS
 70
          64
  3
Solid line
 72
          65
 73
           0
 40
0.0
  0
LTYPE
  5
1D
100
AcDbSymbolTableRecord
100
AcDbLinetypeTableRecord
  2
AUSGEZOGEN
 70
           0
  3

 72
          65
 73
           2
 40
0.5
 49
0.25
 74
           0
 49
-0.25
 74
           0
  0
LTYPE
  5
1E
100
AcDbSymbolTableRecord
100
AcDbLinetypeTableRecord
  2
STRICHLINIE
 70
           0
  3

 72
          65
 73
           2
 40
0.5
 49
0.25
 74
           0
 49
-0.25
 74
           0
  0
LTYPE
  5
1F
100
AcDbSymbolTableRecord
100
AcDbLinetypeTableRecord
  2
STRICHPUNKT
 70
           0
  3

 72
          65
 73
           4
 40
1.0
 49
0.5
 74
           0
 49
-0.25
 74
           0
 49
0.0
 74
           0
 49
-0.25
 74
           0
  0
ENDTAB
  0
TABLE
  2
LAYER
  5
2
100
AcDbSymbolTable
 70
           5
  0
LAYER
  5
14
100
AcDbSymbolTableRecord
100
AcDbLayerTableRecord
  2
0
 70
           0
 62
           7
  6
CONTINUOUS
  0
LAYER
  5
20
100
AcDbSymbolTableRecord
100
AcDbLayerTableRecord
  2
LC-003-002-----0
 70
           0
 62
           7
  6
CONTINUOUS
  0
LAYER
  5
21
100
AcDbSymbolTableRecord
100
AcDbLayerTableRecord
  2
LC-004-006-----0
 70
           0
 62
           7
  6
CONTINUOUS
  0
LAYER
  5
22
100
AcDbSymbolTableRecord
100
AcDbLayerTableRecord
  2
LC-006-012-----0
 70
           0
 62
           7
  6
CONTINUOUS
  0
LAYER
  5
23
100
AcDbSymbolTableRecord
100
AcDbLayerTableRecord
  2
LC-005-002-RND-0
 70
           0
 62
           7
  6
CONTINUOUS
  0
ENDTAB
  0
TABLE
  2
STYLE
  5
3
100
AcDbSymbolTable
 70
           1
  0
STYLE
  5
17
100
AcDbSymbolTableRecord
100
AcDbTextStyleTableRecord
  2
TXT
 70
           0
 40
3.5
 41
1.0
 50
0.0
 71
           0
 42
3.5
  3
TXT
  4

  0
ENDTAB
  0
TABLE
  2
VIEW
  5
5
100
AcDbSymbolTable
 70
           0
  0
ENDTAB
  0
TABLE
  2
UCS
  5
6
100
AcDbSymbolTable
 70
           0
  0
ENDTAB
  0
TABLE
  2
APPID
  5
8
100
AcDbSymbolTable
 70
           2
  0
APPID
  5
16
100
AcDbSymbolTableRecord
100
AcDbRegAppTableRecord
  2
ACAD
 70
           0
  0
APPID
  5
24
100
AcDbSymbolTableRecord
100
AcDbRegAppTableRecord
  2
MegaCADPntStyle
 70
           0
  0
ENDTAB
  0
TABLE
  2
DIMSTYLE
  5
9
100
AcDbSymbolTable
 70
           1
  0
DIMSTYLE
105
18
100
AcDbSymbolTableRecord
100
AcDbDimStyleTableRecord
  2
STANDARD
 70
           0
  3

  4

  5

  6

  7

 40
1.0
 41
0.18
 42
0.0625
 43
0.38
 44
0.18
 45
0.0
 46
0.0
 47
0.0
 48
0.0
 71
           0
 72
           0
 73
           1
 74
           1
 75
           0
 76
           0
 77
           0
 78
           0
140
0.18
141
0.09
142
0.0
143
25.4
144
1.0
145
0.0
146
1.0
147
0.09
170
           0
171
           2
172
           0
173
           0
174
           0
175
           0
176
           0
177
           0
178
           0
270
           2
271
           4
272
           4
273
           2
274
           2
275
           0
280
           0
281
           0
282
           0
283
           1
284
           0
285
           0
286
           0
287
           0
288
           0
340
17
  0
ENDTAB
  0
TABLE
  2
BLOCK_RECORD
  5
1
100
AcDbSymbolTable
 70
           2
  0
BLOCK_RECORD
  5
A
100
AcDbSymbolTableRecord
100
AcDbBlockTableRecord
  2
*MODEL_SPACE
  0
BLOCK_RECORD
  5
B
100
AcDbSymbolTableRecord
100
AcDbBlockTableRecord
  2
*PAPER_SPACE
  0
BLOCK_RECORD
  5
25
102
{ACAD_XDICTIONARY
360
5C
102
}
100
AcDbSymbolTableRecord
100
AcDbBlockTableRecord
  2
ELIPPSE
  0
BLOCK_RECORD
  5
26
102
{ACAD_XDICTIONARY
360
5C
102
}
100
AcDbSymbolTableRecord
100
AcDbBlockTableRecord
  2
*X1
  0
ENDTAB
  0
ENDSEC
  0
SECTION
  2
BLOCKS
  0
BLOCK
  5
D
100
AcDbEntity
  8
0
100
AcDbBlockBegin
  2
*MODEL_SPACE
 70
           0
 10
0.0
 20
0.0
 30
0.0
  3
*MODEL_SPACE
  1

  0
ENDBLK
  5
E
100
AcDbEntity
  8
0
100
AcDbBlockEnd
  0
BLOCK
  5
F
100
AcDbEntity
 67
           1
  8
0
100
AcDbBlockBegin
  2
*PAPER_SPACE
 70
           0
 10
0.0
 20
0.0
 30
0.0
  3
*PAPER_SPACE
  1

  0
ENDBLK
  5
10
100
AcDbEntity
 67
           1
  8
0
100
AcDbBlockEnd
  0
BLOCK
  5
CD
100
AcDbEntity
  8
0
100
AcDbBlockBegin
  2
ELIPPSE
 70
          64
 10
0.0
 20
0.0
 30
0.0
  3
ELIPPSE
  1

  0
CIRCLE
  5
CE
100
AcDbEntity
  8
0
  6
BYBLOCK
 62
           0
100
AcDbCircle
 10
0.0
 20
0.0
 30
0.0
 40
1.0
  0
ENDBLK
  5
CF
100
AcDbEntity
  8
0
  6
BYBLOCK
 62
           0
100
AcDbBlockEnd
  0
BLOCK
  5
D0
100
AcDbEntity
  8
0
100
AcDbBlockBegin
  2
*X1
 70
          65
 10
0.0
 20
0.0
 30
0.0
  3
*X1
  1

  0
LINE
  5
D1
100
AcDbEntity
  8
0
  6
BYBLOCK
 62
           0
100
AcDbLine
 10
166.484071409746
 20
275.095673
 30
0.0
 11
170.117264
 21
278.728865590254
 31
0.0
  0
LINE
  5
D2
100
AcDbEntity
  8
0
  6
BYBLOCK
 62
           0
100
AcDbLine
 10
163.354920380636
 20
275.360634520585
 30
0.0
 11
169.089958860051
 21
281.095673
 31
0.0
  0
LINE
  5
D3
100
AcDbEntity
  8
0
  6
BYBLOCK
 62
           0
100
AcDbLine
 10
159.695846310355
 20
275.095673
 30
0.0
 11
165.695846310355
 21
281.095673
 31
0.0
  0
LINE
  5
D4
100
AcDbEntity
  8
0
  6
BYBLOCK
 62
           0
100
AcDbLine
 10
156.30173376066
 20
275.095673
 30
0.0
 11
162.30173376066
 21
281.095673
 31
0.0
  0
LINE
  5
D5
100
AcDbEntity
  8
0
  6
BYBLOCK
 62
           0
100
AcDbLine
 10
152.907621210965
 20
275.095673
 30
0.0
 11
158.907621210965
 21
281.095673
 31
0.0
  0
LINE
  5
D6
100
AcDbEntity
  8
0
  6
BYBLOCK
 62
           0
100
AcDbLine
 10
149.513508661269
 20
275.095673
 30
0.0
 11
155.513508661269
 21
281.095673
 31
0.0
  0
LINE
  5
D7
100
AcDbEntity
  8
0
  6
BYBLOCK
 62
           0
100
AcDbLine
 10
146.119396111574
 20
275.095673
 30
0.0
 11
152.119396111574
 21
281.095673
 31
0.0
  0
LINE
  5
D8
100
AcDbEntity
  8
0
  6
BYBLOCK
 62
           0
100
AcDbLine
 10
142.84246417605
 20
275.212853614172
 30
0.0
 11
148.725283561878
 21
281.095673
 31
0.0
  0
LINE
  5
D9
100
AcDbEntity
  8
0
  6
BYBLOCK
 62
           0
100
AcDbLine
 10
139.331171012183
 20
275.095673
 30
0.0
 11
145.331171012183
 21
281.095673
 31
0.0
  0
LINE
  5
DA
100
AcDbEntity
  8
0
  6
BYBLOCK
 62
           0
100
AcDbLine
 10
135.937058462487
 20
275.095673
 30
0.0
 11
141.937058462487
 21
281.095673
 31
0.0
  0
LINE
  5
DB
100
AcDbEntity
  8
0
  6
BYBLOCK
 62
           0
100
AcDbLine
 10
132.542945912792
 20
275.095673
 30
0.0
 11
138.542945912792
 21
281.095673
 31
0.0
  0
LINE
  5
DC
100
AcDbEntity
  8
0
  6
BYBLOCK
 62
           0
100
AcDbLine
 10
129.148833363096
 20
275.095673
 30
0.0
 11
135.148833363096
 21
281.095673
 31
0.0
  0
LINE
  5
DD
100
AcDbEntity
  8
0
  6
BYBLOCK
 62
           0
100
AcDbLine
 10
125.754720813401
 20
275.095673
 30
0.0
 11
131.754720813401
 21
281.095673
 31
0.0
  0
LINE
  5
DE
100
AcDbEntity
  8
0
  6
BYBLOCK
 62
           0
100
AcDbLine
 10
122.360608263706
 20
275.095673
 30
0.0
 11
128.360608263706
 21
281.095673
 31
0.0
  0
LINE
  5
DF
100
AcDbEntity
  8
0
  6
BYBLOCK
 62
           0
100
AcDbLine
 10
121.117256
 20
277.24643328599
 30
0.0
 11
124.96649571401
 21
281.095673
 31
0.0
  0
LINE
  5
E0
100
AcDbEntity
  8
0
  6
BYBLOCK
 62
           0
100
AcDbLine
 10
115.572383164315
 20
275.095673
 30
0.0
 11
117.117256
 21
276.640545835685
 31
0.0
  0
LINE
  5
E1
100
AcDbEntity
  8
0
  6
BYBLOCK
 62
           0
100
AcDbLine
 10
121.117256
 20
280.640545835685
 30
0.0
 11
121.572383164315
 21
281.095673
 31
0.0
  0
LINE
  5
E2
100
AcDbEntity
  8
0
  6
BYBLOCK
 62
           0
100
AcDbLine
 10
112.178270614619
 20
275.095673
 30
0.0
 11
117.117256
 21
280.034658385381
 31
0.0
  0
LINE
  5
E3
100
AcDbEntity
  8
0
  6
BYBLOCK
 62
           0
100
AcDbLine
 10
108.784158064924
 20
275.095673
 30
0.0
 11
114.784158064924
 21
281.095673
 31
0.0
  0
LINE
  5
E4
100
AcDbEntity
  8
0
  6
BYBLOCK
 62
           0
100
AcDbLine
 10
105.390045515228
 20
275.095673
 30
0.0
 11
111.390045515228
 21
281.095673
 31
0.0
  0
LINE
  5
E5
100
AcDbEntity
  8
0
  6
BYBLOCK
 62
           0
100
AcDbLine
 10
101.995932965533
 20
275.095673
 30
0.0
 11
107.995932965533
 21
281.095673
 31
0.0
  0
LINE
  5
E6
100
AcDbEntity
  8
0
  6
BYBLOCK
 62
           0
100
AcDbLine
 10
98.601820415838
 20
275.095673
 30
0.0
 11
104.601820415838
 21
281.095673
 31
0.0
  0
LINE
  5
E7
100
AcDbEntity
  8
0
  6
BYBLOCK
 62
           0
100
AcDbLine
 10
95.699773501634
 20
275.587738635491
 30
0.0
 11
101.207707866142
 21
281.095673
 31
0.0
  0
LINE
  5
E8
100
AcDbEntity
  8
0
  6
BYBLOCK
 62
           0
100
AcDbLine
 10
91.813595316447
 20
275.095673
 30
0.0
 11
97.813595316447
 21
281.095673
 31
0.0
  0
LINE
  5
E9
100
AcDbEntity
  8
0
  6
BYBLOCK
 62
           0
100
AcDbLine
 10
88.419482766751
 20
275.095673
 30
0.0
 11
94.419482766751
 21
281.095673
 31
0.0
  0
LINE
  5
EA
100
AcDbEntity
  8
0
  6
BYBLOCK
 62
           0
100
AcDbLine
 10
85.025370217056
 20
275.095673
 30
0.0
 11
91.025370217056
 21
281.095673
 31
0.0
  0
LINE
  5
EB
100
AcDbEntity
  8
0
  6
BYBLOCK
 62
           0
100
AcDbLine
 10
81.63125766736
 20
275.095673
 30
0.0
 11
87.63125766736
 21
281.095673
 31
0.0
  0
LINE
  5
EC
100
AcDbEntity
  8
0
  6
BYBLOCK
 62
           0
100
AcDbLine
 10
78.237145117665
 20
275.095673
 30
0.0
 11
84.237145117665
 21
281.095673
 31
0.0
  0
LINE
  5
ED
100
AcDbEntity
  8
0
  6
BYBLOCK
 62
           0
100
AcDbLine
 10
74.843032567969
 20
275.095673
 30
0.0
 11
81.34303256797
 21
281.595673
 31
0.0
  0
LINE
  5
EE
100
AcDbEntity
  8
0
  6
BYBLOCK
 62
           0
100
AcDbLine
 10
72.047065488431
 20
275.693818470157
 30
0.0
 11
77.948920018274
 21
281.595673
 31
0.0
  0
LINE
  5
EF
100
AcDbEntity
  8
0
  6
BYBLOCK
 62
           0
100
AcDbLine
 10
68.554807468579
 20
275.595673
 30
0.0
 11
74.054807468579
 21
281.095673
 31
0.0
  0
LINE
  5
F0
100
AcDbEntity
  8
0
  6
BYBLOCK
 62
           0
100
AcDbLine
 10
75.117256
 20
282.158121531421
 30
0.0
 11
76.654782468579
 21
283.695648
 31
0.0
  0
LINE
  5
F1
100
AcDbEntity
  8
0
  6
BYBLOCK
 62
           0
100
AcDbLine
 10
67.117256
 20
277.552234081117
 30
0.0
 11
70.660694918883
 21
281.095673
 31
0.0
  0
LINE
  5
F2
100
AcDbEntity
  8
0
  6
BYBLOCK
 62
           0
100
AcDbLine
 10
81.160694918883
 20
291.595673
 30
0.0
 11
81.660694918883
 21
292.095673
 31
0.0
  0
LINE
  5
F3
100
AcDbEntity
  8
0
  6
BYBLOCK
 62
           0
100
AcDbLine
 10
75.666576369188
 20
289.495667
 30
0.0
 11
77.417259
 21
291.246349630812
 31
0.0
  0
LINE
  5
F4
100
AcDbEntity
  8
0
  6
BYBLOCK
 62
           0
100
AcDbLine
 10
77.766582369188
 20
291.595673
 30
0.0
 11
78.266582369188
 21
292.095673
 31
0.0
  0
ENDBLK
  5
F5
100
AcDbEntity
  8
0
  6
BYBLOCK
 62
           0
100
AcDbBlockEnd
  0
ENDSEC
  0
SECTION
  2
ENTITIES
  0
CIRCLE
  5
27
100
AcDbEntity
  8
LC-006-012-----0
  6
STRICHLINIE
 62
           2
100
AcDbCircle
 10
263.793549
 20
286.595673
 30
0.0
 40
5.0
  0
LINE
  5
28
100
AcDbEntity
  8
LC-003-002-----0
  6
AUSGEZOGEN
 62
           1
100
AcDbLine
 10
51.674629
 20
273.095673
 30
0.0
 11
67.117256
 21
273.095673
 31
0.0
  0
CIRCLE
  5
29
100
AcDbEntity
  8
LC-003-002-----0
  6
AUSGEZOGEN
 62
           1
100
AcDbCircle
 10
263.793549
 20
265.095673
 30
0.0
 40
27.0
  0
CIRCLE
  5
2A
100
AcDbEntity
  8
LC-004-006-----0
  6
STRICHPUNKT
 62
           2
100
AcDbCircle
 10
263.793549
 20
265.095673
 30
0.0
 40
21.5
  0
LINE
  5
2B
100
AcDbEntity
  8
LC-004-006-----0
  6
STRICHPUNKT
 62
           2
100
AcDbLine
 10
48.555855
 20
265.095673
 30
0.0
 11
192.97963
 21
265.095673
 31
0.0
  0
LINE
  5
2C
100
AcDbEntity
  8
LC-003-002-----0
  6
AUSGEZOGEN
 62
           1
100
AcDbLine
 10
82.617256
 20
292.095673
 30
0.0
 11
75.617256
 21
292.095673
 31
0.0
  0
LINE
  5
2D
100
AcDbEntity
  8
LC-003-002-----0
  6
AUSGEZOGEN
 62
           1
100
AcDbLine
 10
82.617256
 20
238.095657
 30
0.0
 11
75.617256
 21
238.095657
 31
0.0
  0
LINE
  5
2E
100
AcDbEntity
  8
LC-003-002-----0
  6
AUSGEZOGEN
 62
           1
100
AcDbLine
 10
67.867256
 20
281.095673
 30
0.0
 11
74.617256
 21
281.095673
 31
0.0
  0
LINE
  5
2F
100
AcDbEntity
  8
LC-003-002-----0
  6
AUSGEZOGEN
 62
           1
100
AcDbLine
 10
67.867256
 20
249.095657
 30
0.0
 11
74.617256
 21
249.095657
 31
0.0
  0
LINE
  5
30
100
AcDbEntity
  8
LC-003-002-----0
  6
AUSGEZOGEN
 62
           1
100
AcDbLine
 10
67.117256
 20
280.345673
 30
0.0
 11
67.117256
 21
273.095673
 31
0.0
  0
LINE
  5
31
100
AcDbEntity
  8
LC-003-002-----0
  6
AUSGEZOGEN
 62
           1
100
AcDbLine
 10
75.117256
 20
291.595673
 30
0.0
 11
75.117256
 21
280.595673
 31
0.0
  0
LINE
  5
32
100
AcDbEntity
  8
LC-003-002-----0
  6
AUSGEZOGEN
 62
           1
100
AcDbLine
 10
83.117256
 20
291.595673
 30
0.0
 11
83.117256
 21
280.595673
 31
0.0
  0
LINE
  5
33
100
AcDbEntity
  8
LC-003-002-----0
  6
AUSGEZOGEN
 62
           1
100
AcDbLine
 10
170.117264
 20
280.345673
 30
0.0
 11
170.117264
 21
273.095673
 31
0.0
  0
LINE
  5
34
100
AcDbEntity
  8
LC-003-002-----0
  6
AUSGEZOGEN
 62
           1
100
AcDbLine
 10
170.117264
 20
273.095673
 30
0.0
 11
189.810715
 21
273.095673
 31
0.0
  0
LINE
  5
35
100
AcDbEntity
  8
LC-003-002-----0
  6
AUSGEZOGEN
 62
           1
100
AcDbLine
 10
51.674629
 20
257.095673
 30
0.0
 11
67.117256
 21
257.095673
 31
0.0
  0
LINE
  5
36
100
AcDbEntity
  8
LC-005-002-RND-0
  6
AUSGEZOGEN
 62
           2
100
AcDbLine
 10
51.674629
 20
257.095673
 30
0.0
 11
51.276577
 21
262.067596
 31
0.0
  0
LINE
  5
37
100
AcDbEntity
  8
LC-005-002-RND-0
  6
AUSGEZOGEN
 62
           2
100
AcDbLine
 10
51.276577
 20
262.067596
 30
0.0
 11
52.072674
 21
267.193085
 31
0.0
  0
LINE
  5
38
100
AcDbEntity
  8
LC-005-002-RND-0
  6
AUSGEZOGEN
 62
           2
100
AcDbLine
 10
52.072674
 20
267.193085
 30
0.0
 11
51.674629
 21
273.095673
 31
0.0
  0
LINE
  5
39
100
AcDbEntity
  8
LC-005-002-RND-0
  6
AUSGEZOGEN
 62
           2
100
AcDbLine
 10
189.842117
 20
257.095673
 30
0.0
 11
190.258911
 21
260.636658
 31
0.0
  0
LINE
  5
3A
100
AcDbEntity
  8
LC-005-002-RND-0
  6
AUSGEZOGEN
 62
           2
100
AcDbLine
 10
190.258911
 20
260.636658
 30
0.0
 11
189.349075
 21
267.864838
 31
0.0
  0
LINE
  5
3B
100
AcDbEntity
  8
LC-005-002-RND-0
  6
AUSGEZOGEN
 62
           2
100
AcDbLine
 10
189.349075
 20
267.864838
 30
0.0
 11
189.810715
 21
273.095673
 31
0.0
  0
LINE
  5
3C
100
AcDbEntity
  8
LC-003-002-----0
  6
AUSGEZOGEN
 62
           1
100
AcDbLine
 10
67.117256
 20
273.095673
 30
0.0
 11
170.117264
 21
273.095673
 31
0.0
  0
LINE
  5
3D
100
AcDbEntity
  8
LC-006-012-----0
  6
STRICHLINIE
 62
           2
100
AcDbLine
 10
67.117256
 20
257.095673
 30
0.0
 11
170.117264
 21
257.095673
 31
0.0
  0
LINE
  5
3E
100
AcDbEntity
  8
LC-003-002-----0
  6
AUSGEZOGEN
 62
           1
100
AcDbLine
 10
170.117264
 20
257.095673
 30
0.0
 11
189.842117
 21
257.095673
 31
0.0
  0
LINE
  5
3F
100
AcDbEntity
  8
LC-003-002-----0
  6
AUSGEZOGEN
 62
           1
100
AcDbLine
 10
83.617256
 20
281.095673
 30
0.0
 11
169.367264
 21
281.095673
 31
0.0
  0
LINE
  5
40
100
AcDbEntity
  8
LC-003-002-----0
  6
AUSGEZOGEN
 62
           1
100
AcDbLine
 10
83.617256
 20
249.095657
 30
0.0
 11
169.367264
 21
249.095657
 31
0.0
  0
LINE
  5
41
100
AcDbEntity
  8
LC-003-002-----0
  6
AUSGEZOGEN
 62
           1
100
AcDbLine
 10
74.617256
 20
281.095673
 30
0.0
 11
74.617256
 21
280.595673
 31
0.0
  0
LINE
  5
42
100
AcDbEntity
  8
LC-003-002-----0
  6
AUSGEZOGEN
 62
           1
100
AcDbLine
 10
83.617256
 20
281.095673
 30
0.0
 11
83.617256
 21
280.595673
 31
0.0
  0
LINE
  5
43
100
AcDbEntity
  8
LC-003-002-----0
  6
AUSGEZOGEN
 62
           1
100
AcDbLine
 10
74.617256
 20
249.595657
 30
0.0
 11
75.117256
 21
249.595657
 31
0.0
  0
LINE
  5
44
100
AcDbEntity
  8
LC-003-002-----0
  6
AUSGEZOGEN
 62
           1
100
AcDbLine
 10
74.617256
 20
280.595673
 30
0.0
 11
75.117256
 21
280.595673
 31
0.0
  0
LINE
  5
45
100
AcDbEntity
  8
LC-003-002-----0
  6
AUSGEZOGEN
 62
           1
100
AcDbLine
 10
83.117256
 20
280.595673
 30
0.0
 11
83.617256
 21
280.595673
 31
0.0
  0
LINE
  5
46
100
AcDbEntity
  8
LC-003-002-----0
  6
AUSGEZOGEN
 62
           1
100
AcDbLine
 10
83.117256
 20
249.595657
 30
0.0
 11
83.617256
 21
249.595657
 31
0.0
  0
LINE
  5
47
100
AcDbEntity
  8
LC-003-002-----0
  6
AUSGEZOGEN
 62
           1
100
AcDbLine
 10
75.617256
 20
238.095657
 30
0.0
 11
75.117256
 21
238.595657
 31
0.0
  0
LINE
  5
48
100
AcDbEntity
  8
LC-003-002-----0
  6
AUSGEZOGEN
 62
           1
100
AcDbLine
 10
75.617256
 20
292.095673
 30
0.0
 11
75.117256
 21
291.595673
 31
0.0
  0
LINE
  5
49
100
AcDbEntity
  8
LC-003-002-----0
  6
AUSGEZOGEN
 62
           1
100
AcDbLine
 10
75.617256
 20
238.095657
 30
0.0
 11
75.617256
 21
265.095673
 31
0.0
  0
LINE
  5
4A
100
AcDbEntity
  8
LC-003-002-----0
  6
AUSGEZOGEN
 62
           1
100
AcDbLine
 10
83.117256
 20
291.595673
 30
0.0
 11
82.617256
 21
292.095673
 31
0.0
  0
LINE
  5
4B
100
AcDbEntity
  8
LC-003-002-----0
  6
AUSGEZOGEN
 62
           1
100
AcDbLine
 10
83.117256
 20
238.595657
 30
0.0
 11
82.617256
 21
238.095657
 31
0.0
  0
LINE
  5
4C
100
AcDbEntity
  8
LC-003-002-----0
  6
AUSGEZOGEN
 62
           1
100
AcDbLine
 10
82.617256
 20
265.095673
 30
0.0
 11
82.617256
 21
238.095642
 31
0.0
  0
ARC
  5
4D
100
AcDbEntity
  8
LC-003-002-----0
  6
AUSGEZOGEN
 62
           1
100
AcDbCircle
 10
67.867256
 20
249.845657
 30
0.0
 40
0.75
100
AcDbArc
 50
180.000008999999
 51
269.999997
  0
ARC
  5
4E
100
AcDbEntity
  8
LC-003-002-----0
  6
AUSGEZOGEN
 62
           1
100
AcDbCircle
 10
67.867256
 20
280.345673
 30
0.0
 40
0.75
100
AcDbArc
 50
90.000003
 51
180.000009000001
  0
ARC
  5
4F
100
AcDbEntity
  8
LC-003-002-----0
  6
AUSGEZOGEN
 62
           1
100
AcDbCircle
 10
169.367264
 20
280.345673
 30
0.0
 40
0.75
100
AcDbArc
 50
0.0
 51
90.000003
  0
ARC
  5
50
100
AcDbEntity
  8
LC-003-002-----0
  6
AUSGEZOGEN
 62
           1
100
AcDbCircle
 10
169.367264
 20
249.845657
 30
0.0
 40
0.75
100
AcDbArc
 50
269.999997
 51
0.0
  0
LINE
  5
51
100
AcDbEntity
  8
LC-004-006-----0
  6
STRICHPUNKT
 62
           2
100
AcDbLine
 10
234.286133
 20
265.095673
 30
0.0
 11
293.669281
 21
265.095673
 31
0.0
  0
LINE
  5
52
100
AcDbEntity
  8
LC-004-006-----0
  6
STRICHPUNKT
 62
           2
100
AcDbLine
 10
263.793549
 20
234.800751
 30
0.0
 11
263.793549
 21
294.584167
 31
0.0
  0
CIRCLE
  5
53
100
AcDbEntity
  8
LC-003-002-----0
  6
AUSGEZOGEN
 62
           1
100
AcDbCircle
 10
263.793549
 20
265.095673
 30
0.0
 40
8.0
  0
CIRCLE
  5
54
100
AcDbEntity
  8
LC-003-002-----0
  6
AUSGEZOGEN
 62
           1
100
AcDbCircle
 10
263.793549
 20
265.095673
 30
0.0
 40
16.0
  0
CIRCLE
  5
55
100
AcDbEntity
  8
LC-003-002-----0
  6
AUSGEZOGEN
 62
           1
100
AcDbCircle
 10
263.793549
 20
286.595673
 30
0.0
 40
2.9
  0
CIRCLE
  5
56
100
AcDbEntity
  8
LC-003-002-----0
  6
AUSGEZOGEN
 62
           1
100
AcDbCircle
 10
242.293549
 20
265.095673
 30
0.0
 40
2.9
  0
CIRCLE
  5
57
100
AcDbEntity
  8
LC-006-012-----0
  6
STRICHLINIE
 62
           2
100
AcDbCircle
 10
242.293549
 20
265.095673
 30
0.0
 40
5.0
  0
CIRCLE
  5
58
100
AcDbEntity
  8
LC-006-012-----0
  6
STRICHLINIE
 62
           2
100
AcDbCircle
 10
263.793549
 20
243.595657
 30
0.0
 40
5.0
  0
CIRCLE
  5
59
100
AcDbEntity
  8
LC-003-002-----0
  6
AUSGEZOGEN
 62
           1
100
AcDbCircle
 10
263.793549
 20
243.595657
 30
0.0
 40
2.9
  0
CIRCLE
  5
5A
100
AcDbEntity
  8
LC-006-012-----0
  6
STRICHLINIE
 62
           2
100
AcDbCircle
 10
285.293549
 20
265.095673
 30
0.0
 40
5.0
  0
CIRCLE
  5
5B
100
AcDbEntity
  8
LC-003-002-----0
  6
AUSGEZOGEN
 62
           1
100
AcDbCircle
 10
285.293549
 20
265.095673
 30
0.0
 40
2.9
  0
LINE
  5
5C
100
AcDbEntity
  8
LC-003-002-----0
  6
AUSGEZOGEN
 62
           1
100
AcDbLine
 10
77.417259
 20
289.495667
 30
0.0
 11
75.117256
 21
289.495667
 31
0.0
  0
LINE
  5
5D
100
AcDbEntity
  8
LC-004-006-----0
  6
STRICHPUNKT
 62
           2
100
AcDbLine
 10
72.750343
 20
286.595673
 30
0.0
 11
85.391647
 21
286.595673
 31
0.0
  0
LINE
  5
5E
100
AcDbEntity
  8
LC-003-002-----0
  6
AUSGEZOGEN
 62
           1
100
AcDbLine
 10
77.417259
 20
291.595673
 30
0.0
 11
77.417259
 21
281.595673
 31
0.0
  0
LINE
  5
5F
100
AcDbEntity
  8
LC-003-002-----0
  6
AUSGEZOGEN
 62
           1
100
AcDbLine
 10
83.117256
 20
281.595673
 30
0.0
 11
77.417259
 21
281.595673
 31
0.0
  0
LINE
  5
60
100
AcDbEntity
  8
LC-003-002-----0
  6
AUSGEZOGEN
 62
           1
100
AcDbLine
 10
77.417259
 20
283.695648
 30
0.0
 11
75.117256
 21
283.695648
 31
0.0
  0
LINE
  5
61
100
AcDbEntity
  8
LC-004-006-----0
  6
STRICHPUNKT
 62
           2
100
AcDbLine
 10
72.750343
 20
243.595657
 30
0.0
 11
85.391647
 21
243.595657
 31
0.0
  0
LINE
  5
62
100
AcDbEntity
  8
LC-006-012-----0
  6
STRICHLINIE
 62
           2
100
AcDbLine
 10
83.117256
 20
248.595657
 30
0.0
 11
77.417259
 21
248.595657
 31
0.0
  0
LINE
  5
63
100
AcDbEntity
  8
LC-006-012-----0
  6
STRICHLINIE
 62
           2
100
AcDbLine
 10
83.117256
 20
238.595657
 30
0.0
 11
77.417259
 21
238.595657
 31
0.0
  0
LINE
  5
64
100
AcDbEntity
  8
LC-006-012-----0
  6
STRICHLINIE
 62
           2
100
AcDbLine
 10
77.417259
 20
238.595657
 30
0.0
 11
77.417259
 21
248.595657
 31
0.0
  0
LINE
  5
65
100
AcDbEntity
  8
LC-006-012-----0
  6
STRICHLINIE
 62
           2
100
AcDbLine
 10
77.417259
 20
240.695663
 30
0.0
 11
75.117256
 21
240.695663
 31
0.0
  0
LINE
  5
66
100
AcDbEntity
  8
LC-006-012-----0
  6
STRICHLINIE
 62
           2
100
AcDbLine
 10
77.417259
 20
246.495667
 30
0.0
 11
75.117256
 21
246.495667
 31
0.0
  0
LINE
  5
67
100
AcDbEntity
  8
LC-003-002-----0
  6
AUSGEZOGEN
 62
           1
100
AcDbLine
 10
74.617256
 20
265.095673
 30
0.0
 11
74.617256
 21
249.095642
 31
0.0
  0
LINE
  5
68
100
AcDbEntity
  8
LC-003-002-----0
  6
AUSGEZOGEN
 62
           1
100
AcDbLine
 10
75.117256
 20
265.095673
 30
0.0
 11
75.117256
 21
238.595642
 31
0.0
  0
LINE
  5
69
100
AcDbEntity
  8
LC-003-002-----0
  6
AUSGEZOGEN
 62
           1
100
AcDbLine
 10
83.117256
 20
265.095673
 30
0.0
 11
83.117256
 21
238.095642
 31
0.0
  0
LINE
  5
6A
100
AcDbEntity
  8
LC-003-002-----0
  6
AUSGEZOGEN
 62
           1
100
AcDbLine
 10
83.617256
 20
265.095673
 30
0.0
 11
83.617256
 21
249.095642
 31
0.0
  0
LINE
  5
6B
100
AcDbEntity
  8
LC-003-002-----0
  6
AUSGEZOGEN
 62
           1
100
AcDbLine
 10
144.331406
 20
275.095673
 30
0.0
 11
162.903107
 21
275.095673
 31
0.0
  0
LINE
  5
6C
100
AcDbEntity
  8
LC-003-002-----0
  6
AUSGEZOGEN
 62
           1
100
AcDbLine
 10
121.215332
 20
283.022675
 30
0.0
 11
117.01918
 21
283.022675
 31
0.0
  0
LINE
  5
6D
100
AcDbEntity
  8
LC-004-006-----0
  6
STRICHPUNKT
 62
           2
100
AcDbLine
 10
119.117256
 20
289.170959
 30
0.0
 11
119.117256
 21
273.965973
 31
0.0
  0
ARC
  5
6E
100
AcDbEntity
  8
LC-003-002-----0
  6
AUSGEZOGEN
 62
           1
100
AcDbCircle
 10
119.117256
 20
279.968292
 30
0.0
 40
3.054381
100
AcDbArc
 50
66.21087
 51
113.789128
  0
ARC
  5
6F
100
AcDbEntity
  8
LC-003-002-----0
  6
AUSGEZOGEN
 62
           1
100
AcDbCircle
 10
119.117256
 20
284.150055
 30
0.0
 40
3.054381
100
AcDbArc
 50
246.210872
 51
293.78913
  0
LINE
  5
70
100
AcDbEntity
  8
LC-003-002-----0
  6
AUSGEZOGEN
 62
           1
100
AcDbLine
 10
117.117256
 20
284.022675
 30
0.0
 11
117.117256
 21
283.022675
 31
0.0
  0
LINE
  5
71
100
AcDbEntity
  8
LC-003-002-----0
  6
AUSGEZOGEN
 62
           1
100
AcDbLine
 10
121.117256
 20
284.022675
 30
0.0
 11
121.117256
 21
283.022675
 31
0.0
  0
LINE
  5
72
100
AcDbEntity
  8
LC-003-002-----0
  6
AUSGEZOGEN
 62
           1
100
AcDbLine
 10
121.617256
 20
284.022675
 30
0.0
 11
116.617256
 21
284.022675
 31
0.0
  0
LINE
  5
73
100
AcDbEntity
  8
LC-003-002-----0
  6
AUSGEZOGEN
 62
           1
100
AcDbLine
 10
116.617256
 20
285.022675
 30
0.0
 11
116.617256
 21
284.022675
 31
0.0
  0
LINE
  5
74
100
AcDbEntity
  8
LC-003-002-----0
  6
AUSGEZOGEN
 62
           1
100
AcDbLine
 10
121.617256
 20
285.022675
 30
0.0
 11
121.617256
 21
284.022675
 31
0.0
  0
LINE
  5
75
100
AcDbEntity
  8
LC-003-002-----0
  6
AUSGEZOGEN
 62
           1
100
AcDbLine
 10
121.617256
 20
285.022675
 30
0.0
 11
116.617256
 21
285.022675
 31
0.0
  0
LINE
  5
76
100
AcDbEntity
  8
LC-003-002-----0
  6
AUSGEZOGEN
 62
           1
100
AcDbLine
 10
120.617256
 20
287.022675
 30
0.0
 11
117.617256
 21
287.022675
 31
0.0
  0
ARC
  5
77
100
AcDbEntity
  8
LC-003-002-----0
  6
AUSGEZOGEN
 62
           1
100
AcDbCircle
 10
119.117256
 20
285.022675
 30
0.0
 40
2.338464
100
AcDbArc
 50
58.788702
 51
121.211296
  0
LINE
  5
78
100
AcDbEntity
  8
LC-003-002-----0
  6
AUSGEZOGEN
 62
           1
100
AcDbLine
 10
120.617256
 20
287.022675
 30
0.0
 11
121.617256
 21
285.022675
 31
0.0
  0
LINE
  5
79
100
AcDbEntity
  8
LC-003-002-----0
  6
AUSGEZOGEN
 62
           1
100
AcDbLine
 10
117.617256
 20
287.022675
 30
0.0
 11
116.617256
 21
285.022675
 31
0.0
  0
LINE
  5
7A
100
AcDbEntity
  8
LC-003-002-----0
  6
AUSGEZOGEN
 62
           1
100
AcDbLine
 10
117.01918
 20
281.095673
 30
0.0
 11
121.215332
 21
281.095673
 31
0.0
  0
LINE
  5
7B
100
AcDbEntity
  8
LC-003-002-----0
  6
AUSGEZOGEN
 62
           1
100
AcDbLine
 10
116.153152
 20
281.355164
 30
0.0
 11
116.153152
 21
282.763184
 31
0.0
  0
ARC
  5
7C
100
AcDbEntity
  8
LC-003-002-----0
  6
AUSGEZOGEN
 62
           1
100
AcDbCircle
 10
117.01918
 20
282.670441
 30
0.0
 40
1.574777
100
AcDbArc
 50
236.637426000001
 51
303.362569
  0
ARC
  5
7D
100
AcDbEntity
  8
LC-003-002-----0
  6
AUSGEZOGEN
 62
           1
100
AcDbCircle
 10
121.215332
 20
282.670441
 30
0.0
 40
1.574777
100
AcDbArc
 50
236.637426000001
 51
303.362569
  0
LINE
  5
7E
100
AcDbEntity
  8
LC-003-002-----0
  6
AUSGEZOGEN
 62
           1
100
AcDbLine
 10
122.08136
 20
281.355164
 30
0.0
 11
122.08136
 21
282.763184
 31
0.0
  0
ARC
  5
7F
100
AcDbEntity
  8
LC-003-002-----0
  6
AUSGEZOGEN
 62
           1
100
AcDbCircle
 10
121.215332
 20
281.447906
 30
0.0
 40
1.574777
100
AcDbArc
 50
56.637430999999
 51
123.362574
  0
ARC
  5
80
100
AcDbEntity
  8
LC-003-002-----0
  6
AUSGEZOGEN
 62
           1
100
AcDbCircle
 10
117.01918
 20
281.447906
 30
0.0
 40
1.574777
100
AcDbArc
 50
56.637430999999
 51
123.362574
  0
LINE
  5
81
100
AcDbEntity
  8
LC-003-002-----0
  6
AUSGEZOGEN
 62
           1
100
AcDbLine
 10
117.885208
 20
282.763184
 30
0.0
 11
117.885208
 21
281.355164
 31
0.0
  0
LINE
  5
82
100
AcDbEntity
  8
LC-003-002-----0
  6
AUSGEZOGEN
 62
           1
100
AcDbLine
 10
120.349304
 20
282.763184
 30
0.0
 11
120.349304
 21
281.355164
 31
0.0
  0
CIRCLE
  5
83
100
AcDbEntity
  8
LC-003-002-----0
  6
AUSGEZOGEN
 62
           1
100
AcDbCircle
 10
263.793549
 20
265.095673
 30
0.0
 40
26.5
  0
LINE
  5
84
100
AcDbEntity
  8
LC-003-002-----0
  6
AUSGEZOGEN
 62
           1
100
AcDbLine
 10
83.117256
 20
291.595673
 30
0.0
 11
77.417259
 21
291.595673
 31
0.0
  0
LINE
  5
85
100
AcDbEntity
  8
LC-006-012-----0
  6
STRICHLINIE
 62
           2
100
AcDbLine
 10
277.991882
 20
276.326874
 30
0.0
 11
275.02475
 21
279.294006
 31
0.0
  0
LINE
  5
86
100
AcDbEntity
  8
LC-004-006-----0
  6
STRICHPUNKT
 62
           2
100
AcDbLine
 10
280.855804
 20
282.157928
 30
0.0
 11
273.236847
 21
274.538971
 31
0.0
  0
ARC
  5
87
100
AcDbEntity
  8
LC-006-012-----0
  6
STRICHLINIE
 62
           2
100
AcDbCircle
 10
274.348541
 20
275.650665
 30
0.0
 40
3.054381
100
AcDbArc
 50
21.210871
 51
68.78913
  0
ARC
  5
88
100
AcDbEntity
  8
LC-006-012-----0
  6
STRICHLINIE
 62
           2
100
AcDbCircle
 10
277.305481
 20
278.607605
 30
0.0
 40
3.054381
100
AcDbArc
 50
201.210874
 51
248.789132
  0
LINE
  5
89
100
AcDbEntity
  8
LC-006-012-----0
  6
STRICHLINIE
 62
           2
100
AcDbLine
 10
275.801208
 20
279.931763
 30
0.0
 11
275.094116
 21
279.22464
 31
0.0
  0
LINE
  5
8A
100
AcDbEntity
  8
LC-006-012-----0
  6
STRICHLINIE
 62
           2
100
AcDbLine
 10
278.629639
 20
277.103333
 30
0.0
 11
277.922516
 21
276.39621
 31
0.0
  0
LINE
  5
8B
100
AcDbEntity
  8
LC-006-012-----0
  6
STRICHLINIE
 62
           2
100
AcDbLine
 10
278.983185
 20
276.749786
 30
0.0
 11
275.447662
 21
280.285309
 31
0.0
  0
LINE
  5
8C
100
AcDbEntity
  8
LC-006-012-----0
  6
STRICHLINIE
 62
           2
100
AcDbLine
 10
276.154755
 20
280.992432
 30
0.0
 11
275.447662
 21
280.285309
 31
0.0
  0
LINE
  5
8D
100
AcDbEntity
  8
LC-006-012-----0
  6
STRICHLINIE
 62
           2
100
AcDbLine
 10
279.690308
 20
277.456879
 30
0.0
 11
278.983185
 21
276.749786
 31
0.0
  0
LINE
  5
8E
100
AcDbEntity
  8
LC-006-012-----0
  6
STRICHLINIE
 62
           2
100
AcDbLine
 10
279.690308
 20
277.456879
 30
0.0
 11
276.154755
 21
280.992432
 31
0.0
  0
LINE
  5
8F
100
AcDbEntity
  8
LC-006-012-----0
  6
STRICHLINIE
 62
           2
100
AcDbLine
 10
280.3974
 20
279.578217
 30
0.0
 11
278.276093
 21
281.699524
 31
0.0
  0
ARC
  5
90
100
AcDbEntity
  8
LC-006-012-----0
  6
STRICHLINIE
 62
           2
100
AcDbCircle
 10
277.922516
 20
279.22464
 30
0.0
 40
2.338464
100
AcDbArc
 50
13.788703
 51
76.211299
  0
LINE
  5
91
100
AcDbEntity
  8
LC-006-012-----0
  6
STRICHLINIE
 62
           2
100
AcDbLine
 10
280.3974
 20
279.578217
 30
0.0
 11
279.690308
 21
277.456879
 31
0.0
  0
LINE
  5
92
100
AcDbEntity
  8
LC-006-012-----0
  6
STRICHLINIE
 62
           2
100
AcDbLine
 10
278.276093
 20
281.699524
 30
0.0
 11
276.154755
 21
280.992432
 31
0.0
  0
LINE
  5
93
100
AcDbEntity
  8
LC-003-002-----0
  6
AUSGEZOGEN
 62
           1
100
AcDbLine
 10
273.66214
 20
277.931396
 30
0.0
 11
276.629272
 21
274.964264
 31
0.0
  0
LINE
  5
94
100
AcDbEntity
  8
LC-006-012-----0
  6
STRICHLINIE
 62
           2
100
AcDbLine
 10
273.233276
 20
278.727264
 30
0.0
 11
274.228882
 21
279.72287
 31
0.0
  0
ARC
  5
95
100
AcDbEntity
  8
LC-006-012-----0
  6
STRICHLINIE
 62
           2
100
AcDbCircle
 10
274.775665
 20
279.044922
 30
0.0
 40
1.574777
100
AcDbArc
 50
191.637435000001
 51
258.362570999999
  0
ARC
  5
96
100
AcDbEntity
  8
LC-006-012-----0
  6
STRICHLINIE
 62
           2
100
AcDbCircle
 10
277.742798
 20
276.077789
 30
0.0
 40
1.574777
100
AcDbArc
 50
191.637435000001
 51
258.362570999999
  0
LINE
  5
97
100
AcDbEntity
  8
LC-006-012-----0
  6
STRICHLINIE
 62
           2
100
AcDbLine
 10
277.42514
 20
274.5354
 30
0.0
 11
278.420746
 21
275.531006
 31
0.0
  0
ARC
  5
98
100
AcDbEntity
  8
LC-006-012-----0
  6
STRICHLINIE
 62
           2
100
AcDbCircle
 10
276.878357
 20
275.213348
 30
0.0
 40
1.574777
100
AcDbArc
 50
11.637429999999
 51
78.362569
  0
ARC
  5
99
100
AcDbEntity
  8
LC-006-012-----0
  6
STRICHLINIE
 62
           2
100
AcDbCircle
 10
273.911224
 20
278.18045
 30
0.0
 40
1.574777
100
AcDbArc
 50
11.637429999999
 51
78.362569
  0
LINE
  5
9A
100
AcDbEntity
  8
LC-006-012-----0
  6
STRICHLINIE
 62
           2
100
AcDbLine
 10
275.453613
 20
278.498138
 30
0.0
 11
274.458008
 21
277.502533
 31
0.0
  0
LINE
  5
9B
100
AcDbEntity
  8
LC-006-012-----0
  6
STRICHLINIE
 62
           2
100
AcDbLine
 10
277.196014
 20
276.755737
 30
0.0
 11
276.200409
 21
275.760132
 31
0.0
  0
LINE
  5
9C
100
AcDbEntity
  8
LC-003-002-----0
  6
AUSGEZOGEN
 62
           1
100
AcDbLine
 10
169.117264
 20
276.095673
 30
0.0
 11
169.117264
 21
273.095673
 31
0.0
  0
LINE
  5
9D
100
AcDbEntity
  8
LC-003-002-----0
  6
AUSGEZOGEN
 62
           1
100
AcDbLine
 10
137.117264
 20
275.095673
 30
0.0
 11
137.117264
 21
273.095673
 31
0.0
  0
LINE
  5
9E
100
AcDbEntity
  8
LC-003-002-----0
  6
AUSGEZOGEN
 62
           1
100
AcDbLine
 10
117.117256
 20
281.095673
 30
0.0
 11
117.117256
 21
275.095673
 31
0.0
  0
LINE
  5
9F
100
AcDbEntity
  8
LC-003-002-----0
  6
AUSGEZOGEN
 62
           1
100
AcDbLine
 10
121.117256
 20
281.095673
 30
0.0
 11
121.117256
 21
275.095673
 31
0.0
  0
LINE
  5
A0
100
AcDbEntity
  8
LC-003-002-----0
  6
AUSGEZOGEN
 62
           1
100
AcDbLine
 10
168.867264
 20
276.095673
 30
0.0
 11
168.867264
 21
273.095673
 31
0.0
  0
CIRCLE
  5
A1
100
AcDbEntity
  8
LC-003-002-----0
  6
AUSGEZOGEN
 62
           1
100
AcDbCircle
 10
153.617264
 20
274.095673
 30
0.0
 40
1.0
  0
CIRCLE
  5
A2
100
AcDbEntity
  8
LC-003-002-----0
  6
AUSGEZOGEN
 62
           1
100
AcDbCircle
 10
155.617264
 20
274.095673
 30
0.0
 40
1.0
  0
CIRCLE
  5
A3
100
AcDbEntity
  8
LC-003-002-----0
  6
AUSGEZOGEN
 62
           1
100
AcDbCircle
 10
157.617264
 20
274.095673
 30
0.0
 40
1.0
  0
CIRCLE
  5
A4
100
AcDbEntity
  8
LC-003-002-----0
  6
AUSGEZOGEN
 62
           1
100
AcDbCircle
 10
159.617264
 20
274.095673
 30
0.0
 40
1.0
  0
CIRCLE
  5
A5
100
AcDbEntity
  8
LC-003-002-----0
  6
AUSGEZOGEN
 62
           1
100
AcDbCircle
 10
161.617264
 20
274.095673
 30
0.0
 40
1.0
  0
CIRCLE
  5
A6
100
AcDbEntity
  8
LC-003-002-----0
  6
AUSGEZOGEN
 62
           1
100
AcDbCircle
 10
163.617264
 20
274.39566
 30
0.0
 40
1.0
  0
LINE
  5
A7
100
AcDbEntity
  8
LC-003-002-----0
  6
AUSGEZOGEN
 62
           1
100
AcDbLine
 10
166.164429
 20
275.095673
 30
0.0
 11
168.617264
 21
275.095673
 31
0.0
  0
ARC
  5
A8
100
AcDbEntity
  8
LC-003-002-----0
  6
AUSGEZOGEN
 62
           1
100
AcDbCircle
 10
165.24791
 20
274.695648
 30
0.0
 40
1.0
100
AcDbArc
 50
224.427001
 51
156.421823
  0
CIRCLE
  5
A9
100
AcDbEntity
  8
LC-003-002-----0
  6
AUSGEZOGEN
 62
           1
100
AcDbCircle
 10
151.617264
 20
274.095673
 30
0.0
 40
1.0
  0
CIRCLE
  5
AA
100
AcDbEntity
  8
LC-003-002-----0
  6
AUSGEZOGEN
 62
           1
100
AcDbCircle
 10
149.617264
 20
274.095673
 30
0.0
 40
1.0
  0
CIRCLE
  5
AB
100
AcDbEntity
  8
LC-003-002-----0
  6
AUSGEZOGEN
 62
           1
100
AcDbCircle
 10
147.617264
 20
274.095673
 30
0.0
 40
1.0
  0
CIRCLE
  5
AC
100
AcDbEntity
  8
LC-003-002-----0
  6
AUSGEZOGEN
 62
           1
100
AcDbCircle
 10
145.617264
 20
274.095673
 30
0.0
 40
1.0
  0
CIRCLE
  5
AD
100
AcDbEntity
  8
LC-003-002-----0
  6
AUSGEZOGEN
 62
           1
100
AcDbCircle
 10
143.617264
 20
274.39566
 30
0.0
 40
1.0
  0
ARC
  5
AE
100
AcDbEntity
  8
LC-003-002-----0
  6
AUSGEZOGEN
 62
           1
100
AcDbCircle
 10
141.986603
 20
274.695648
 30
0.0
 40
1.0
100
AcDbArc
 50
23.578177999999
 51
315.572996999999
  0
LINE
  5
AF
100
AcDbEntity
  8
LC-003-002-----0
  6
AUSGEZOGEN
 62
           1
100
AcDbLine
 10
141.070084
 20
275.095673
 30
0.0
 11
96.164429
 21
275.095673
 31
0.0
  0
LINE
  5
B0
100
AcDbEntity
  8
LC-003-002-----0
  6
AUSGEZOGEN
 62
           1
100
AcDbLine
 10
168.617264
 20
275.595673
 30
0.0
 11
168.617264
 21
273.095673
 31
0.0
  0
LINE
  5
B1
100
AcDbEntity
  8
LC-003-002-----0
  6
AUSGEZOGEN
 62
           1
100
AcDbLine
 10
168.867264
 20
276.095673
 30
0.0
 11
169.117264
 21
276.095673
 31
0.0
  0
LINE
  5
B2
100
AcDbEntity
  8
LC-003-002-----0
  6
AUSGEZOGEN
 62
           1
100
AcDbLine
 10
168.617264
 20
275.595673
 30
0.0
 11
168.867264
 21
275.595673
 31
0.0
  0
LINE
  5
B3
100
AcDbEntity
  8
LC-003-002-----0
  6
AUSGEZOGEN
 62
           1
100
AcDbLine
 10
169.117264
 20
275.595673
 30
0.0
 11
170.117264
 21
275.595673
 31
0.0
  0
LINE
  5
B4
100
AcDbEntity
  8
LC-003-002-----0
  6
AUSGEZOGEN
 62
           1
100
AcDbLine
 10
92.903114
 20
275.095673
 30
0.0
 11
74.331398
 21
275.095673
 31
0.0
  0
LINE
  5
B5
100
AcDbEntity
  8
LC-003-002-----0
  6
AUSGEZOGEN
 62
           1
100
AcDbLine
 10
68.117256
 20
276.095673
 30
0.0
 11
68.117256
 21
273.095673
 31
0.0
  0
LINE
  5
B6
100
AcDbEntity
  8
LC-003-002-----0
  6
AUSGEZOGEN
 62
           1
100
AcDbLine
 10
100.117256
 20
275.095673
 30
0.0
 11
100.117256
 21
273.095673
 31
0.0
  0
LINE
  5
B7
100
AcDbEntity
  8
LC-003-002-----0
  6
AUSGEZOGEN
 62
           1
100
AcDbLine
 10
68.367256
 20
276.095673
 30
0.0
 11
68.367256
 21
273.095673
 31
0.0
  0
CIRCLE
  5
B8
100
AcDbEntity
  8
LC-003-002-----0
  6
AUSGEZOGEN
 62
           1
100
AcDbCircle
 10
83.617256
 20
274.095673
 30
0.0
 40
1.0
  0
CIRCLE
  5
B9
100
AcDbEntity
  8
LC-003-002-----0
  6
AUSGEZOGEN
 62
           1
100
AcDbCircle
 10
81.617256
 20
274.095673
 30
0.0
 40
1.0
  0
CIRCLE
  5
BA
100
AcDbEntity
  8
LC-003-002-----0
  6
AUSGEZOGEN
 62
           1
100
AcDbCircle
 10
79.617256
 20
274.095673
 30
0.0
 40
1.0
  0
CIRCLE
  5
BB
100
AcDbEntity
  8
LC-003-002-----0
  6
AUSGEZOGEN
 62
           1
100
AcDbCircle
 10
77.617256
 20
274.095673
 30
0.0
 40
1.0
  0
CIRCLE
  5
BC
100
AcDbEntity
  8
LC-003-002-----0
  6
AUSGEZOGEN
 62
           1
100
AcDbCircle
 10
75.617256
 20
274.095673
 30
0.0
 40
1.0
  0
CIRCLE
  5
BD
100
AcDbEntity
  8
LC-003-002-----0
  6
AUSGEZOGEN
 62
           1
100
AcDbCircle
 10
73.617256
 20
274.39566
 30
0.0
 40
1.0
  0
LINE
  5
BE
100
AcDbEntity
  8
LC-003-002-----0
  6
AUSGEZOGEN
 62
           1
100
AcDbLine
 10
71.070084
 20
275.095673
 30
0.0
 11
68.617256
 21
275.095673
 31
0.0
  0
ARC
  5
BF
100
AcDbEntity
  8
LC-003-002-----0
  6
AUSGEZOGEN
 62
           1
100
AcDbCircle
 10
71.986603
 20
274.695648
 30
0.0
 40
1.0
100
AcDbArc
 50
23.578177999999
 51
315.572997
  0
CIRCLE
  5
C0
100
AcDbEntity
  8
LC-003-002-----0
  6
AUSGEZOGEN
 62
           1
100
AcDbCircle
 10
85.617256
 20
274.095673
 30
0.0
 40
1.0
  0
CIRCLE
  5
C1
100
AcDbEntity
  8
LC-003-002-----0
  6
AUSGEZOGEN
 62
           1
100
AcDbCircle
 10
87.617256
 20
274.095673
 30
0.0
 40
1.0
  0
CIRCLE
  5
C2
100
AcDbEntity
  8
LC-003-002-----0
  6
AUSGEZOGEN
 62
           1
100
AcDbCircle
 10
89.617256
 20
274.095673
 30
0.0
 40
1.0
  0
CIRCLE
  5
C3
100
AcDbEntity
  8
LC-003-002-----0
  6
AUSGEZOGEN
 62
           1
100
AcDbCircle
 10
91.617256
 20
274.095673
 30
0.0
 40
1.0
  0
CIRCLE
  5
C4
100
AcDbEntity
  8
LC-003-002-----0
  6
AUSGEZOGEN
 62
           1
100
AcDbCircle
 10
93.617256
 20
274.39566
 30
0.0
 40
1.0
  0
ARC
  5
C5
100
AcDbEntity
  8
LC-003-002-----0
  6
AUSGEZOGEN
 62
           1
100
AcDbCircle
 10
95.247917
 20
274.695648
 30
0.0
 40
1.0
100
AcDbArc
 50
224.427001
 51
156.421823
  0
LINE
  5
C6
100
AcDbEntity
  8
LC-003-002-----0
  6
AUSGEZOGEN
 62
           1
100
AcDbLine
 10
68.617256
 20
275.595673
 30
0.0
 11
68.617256
 21
273.095673
 31
0.0
  0
LINE
  5
C7
100
AcDbEntity
  8
LC-003-002-----0
  6
AUSGEZOGEN
 62
           1
100
AcDbLine
 10
68.367256
 20
276.095673
 30
0.0
 11
68.117256
 21
276.095673
 31
0.0
  0
LINE
  5
C8
100
AcDbEntity
  8
LC-003-002-----0
  6
AUSGEZOGEN
 62
           1
100
AcDbLine
 10
68.617256
 20
275.595673
 30
0.0
 11
68.367256
 21
275.595673
 31
0.0
  0
LINE
  5
C9
100
AcDbEntity
  8
LC-003-002-----0
  6
AUSGEZOGEN
 62
           1
100
AcDbLine
 10
68.117256
 20
275.595673
 30
0.0
 11
67.117256
 21
275.595673
 31
0.0
  0
LINE
  5
CA
100
AcDbEntity
  8
LC-003-002-----0
  6
AUSGEZOGEN
 62
           1
100
AcDbLine
 10
67.117256
 20
265.095673
 30
0.0
 11
67.117256
 21
249.845642
 31
0.0
  0
LINE
  5
CB
100
AcDbEntity
  8
LC-003-002-----0
  6
AUSGEZOGEN
 62
           1
100
AcDbLine
 10
170.117264
 20
265.095673
 30
0.0
 11
170.117264
 21
249.845642
 31
0.0
  0
INSERT
  5
CC
100
AcDbEntity
  8
LC-005-002-RND-0
  6
AUSGEZOGEN
 62
           2
100
AcDbBlockReference
  2
*X1
 10
0.0
 20
0.0
 30
0.0
  0
ENDSEC
  0
SECTION
  2
OBJECTS
  0
DICTIONARY
  5
19
100
AcDbDictionary
  3
ACAD_GROUP
350
1A
  3
ACAD_MLINESTYLE
350
1B
  0
DICTIONARY
  5
1A
102
{ACAD_REACTORS
330
19
102
}
100
AcDbDictionary
  0
DICTIONARY
  5
1B
102
{ACAD_REACTORS
330
19
102
}
100
AcDbDictionary
  3
STANDARD
350
1C
  0
MLINESTYLE
  5
1C
102
{ACAD_REACTORS
330
1B
102
}
100
AcDbMlineStyle
  2
STANDARD
 70
           0
  3

 62
           0
 51
90.0
 52
90.0
 71
           2
 49
0.5
 62
         256
  6
BYLAYER
 49
-0.5
 62
         256
  6
BYLAYER
  0
ENDSEC
  0
EOF
