  0
SECTION
  2
HEADER
  9
$LIMMIN
 10
-83.361389
 20
586.801758
  9
$LIMMAX
 10
71.438728
 20
627.800781
  9
$EXTMIN
 10
-83.361389
 20
586.801758
  9
$EXTMAX
 10
71.438728
 20
627.800781
  0
ENDSEC
  0
SECTION
  2
TABLES
  0
TABLE
  2
LTYPE
 70
     3
  0
LTYPE
  2
CONTINUOUS
 70
    64
  3
Ausgezogene Linie
 72
    65
 73
     0
 40
0.0
  0
LTYPE
  2
DASHED
 70
    64
  3
__ __ __ __ __ __ __ __ __ __ __ __ __ __ __
 72
    65
 73
     2
 40
0.75
 49
0.5
 49
-0.25
  0
LTYPE
  2
DASHDOT
 70
    64
  3
__ . __ . __ . __ . __ . __ . __ . __ . __ . __
 72
    65
 73
     4
 40
1.0
 49
0.5
 49
-0.25
 49
0.0
 49
-0.25
  0
ENDTAB
  0
TABLE
  2
LAYER
 70
     4
  0
LAYER
  2
LC-003-002-----0
 70
    64
 62
     7
  6
CONTINUOUS
  0
LAYER
  2
LC-004-006-----0
 70
    64
 62
     7
  6
CONTINUOUS
  0
LAYER
  2
LC-006-012-----0
 70
    64
 62
     7
  6
CONTINUOUS
  0
LAYER
  2
LC-005-002-RND-0
 70
    64
 62
     7
  6
CONTINUOUS
  0
ENDTAB
  0
TABLE
  2
STYLE
 70
     1
  0
STYLE
  2
TXT8
 70
    64
 40
0.0
 41
1.0
 50
0.0
 71
     0
 42
3.500000
  3
TXT8
  4

  0
ENDTAB
  0
ENDSEC
  0
SECTION
  2
BLOCKS
  0
ENDSEC
  0
SECTION
  2
ENTITIES
  0
LINE
  8
LC-004-006-----0
 62
     2
  6
DASHDOT
 10
-83.361389
 20
606.916870
 11
-7.419657
 21
606.916870
  0
LINE
  8
LC-003-002-----0
 62
     1
  6
CONTINUOUS
 10
-69.653107
 20
622.416870
 11
-69.653107
 21
591.416870
  0
LINE
  8
LC-003-002-----0
 62
     1
  6
CONTINUOUS
 10
-69.153107
 20
622.916870
 11
-65.153107
 21
622.916870
  0
LINE
  8
LC-003-002-----0
 62
     1
  6
CONTINUOUS
 10
-65.153107
 20
590.916870
 11
-69.153107
 21
590.916870
  0
LINE
  8
LC-003-002-----0
 62
     1
  6
CONTINUOUS
 10
-64.653107
 20
622.416870
 11
-64.653107
 21
591.416870
  0
LINE
  8
LC-003-002-----0
 62
     1
  6
CONTINUOUS
 10
-64.153107
 20
614.916870
 11
-24.153114
 21
614.916870
  0
LINE
  8
LC-003-002-----0
 62
     1
  6
CONTINUOUS
 10
-64.153107
 20
598.916870
 11
-24.153114
 21
598.916870
  0
LINE
  8
LC-003-002-----0
 62
     1
  6
CONTINUOUS
 10
-23.653111
 20
614.416870
 11
-23.653111
 21
599.416870
  0
LINE
  8
LC-003-002-----0
 62
     1
  6
CONTINUOUS
 10
-81.380844
 20
610.916870
 11
-69.653107
 21
610.916870
  0
LINE
  8
LC-003-002-----0
 62
     1
  6
CONTINUOUS
 10
-81.467888
 20
602.916870
 11
-69.653107
 21
602.916870
  0
LINE
  8
LC-005-002-RND-0
 62
     2
  6
CONTINUOUS
 10
-81.467888
 20
602.916870
 11
-80.979469
 21
604.708618
  0
LINE
  8
LC-005-002-RND-0
 62
     2
  6
CONTINUOUS
 10
-80.979469
 20
604.708618
 11
-81.917801
 21
608.933533
  0
LINE
  8
LC-005-002-RND-0
 62
     2
  6
CONTINUOUS
 10
-81.917801
 20
608.933533
 11
-81.380844
 21
610.916870
  0
LINE
  8
LC-005-002-RND-0
 62
     2
  6
CONTINUOUS
 10
-9.910880
 20
602.916870
 11
-9.460368
 21
604.456665
  0
LINE
  8
LC-005-002-RND-0
 62
     2
  6
CONTINUOUS
 10
-9.460368
 20
604.456665
 11
-10.903958
 21
608.427063
  0
LINE
  8
LC-005-002-RND-0
 62
     2
  6
CONTINUOUS
 10
-10.903958
 20
608.427063
 11
-10.505050
 21
610.916870
  0
LINE
  8
LC-006-012-----0
 62
     2
  6
DASHED
 10
-69.653107
 20
610.916870
 11
-23.653114
 21
610.916870
  0
LINE
  8
LC-003-002-----0
 62
     1
  6
CONTINUOUS
 10
-23.653111
 20
610.916870
 11
-10.505049
 21
610.916870
  0
LINE
  8
LC-006-012-----0
 62
     2
  6
DASHED
 10
-69.653107
 20
602.916870
 11
-23.653114
 21
602.916870
  0
LINE
  8
LC-003-002-----0
 62
     1
  6
CONTINUOUS
 10
-23.653111
 20
602.916870
 11
-9.910879
 21
602.916870
  0
LINE
  8
LC-004-006-----0
 62
     2
  6
DASHDOT
 10
29.072723
 20
606.916870
 11
71.438728
 21
606.916870
  0
LINE
  8
LC-004-006-----0
 62
     2
  6
DASHDOT
 10
49.905262
 20
627.800781
 11
49.905262
 21
586.801758
  0
CIRCLE
  8
LC-003-002-----0
 62
     1
  6
CONTINUOUS
 10
49.905262
 20
606.916870
 40
4.000000
  0
CIRCLE
  8
LC-003-002-----0
 62
     1
  6
CONTINUOUS
 10
49.905262
 20
606.916870
 40
16.000000
  0
CIRCLE
  8
LC-006-012-----0
 62
     2
  6
DASHED
 10
49.905262
 20
606.916870
 40
8.000000
  0
CIRCLE
  8
LC-004-006-----0
 62
     2
  6
DASHDOT
 10
49.905262
 20
606.916870
 40
12.000000
  0
CIRCLE
  8
LC-003-002-----0
 62
     1
  6
CONTINUOUS
 10
37.905262
 20
606.916870
 40
3.000000
  0
CIRCLE
  8
LC-003-002-----0
 62
     1
  6
CONTINUOUS
 10
37.905262
 20
606.916870
 40
1.800000
  0
CIRCLE
  8
LC-003-002-----0
 62
     1
  6
CONTINUOUS
 10
49.905262
 20
618.916870
 40
3.000000
  0
CIRCLE
  8
LC-003-002-----0
 62
     1
  6
CONTINUOUS
 10
49.905262
 20
618.916870
 40
1.800000
  0
CIRCLE
  8
LC-003-002-----0
 62
     1
  6
CONTINUOUS
 10
49.905262
 20
594.916870
 40
3.000000
  0
CIRCLE
  8
LC-003-002-----0
 62
     1
  6
CONTINUOUS
 10
49.905262
 20
594.916870
 40
1.800000
  0
CIRCLE
  8
LC-003-002-----0
 62
     1
  6
CONTINUOUS
 10
61.905262
 20
606.916870
 40
3.000000
  0
CIRCLE
  8
LC-003-002-----0
 62
     1
  6
CONTINUOUS
 10
61.905262
 20
606.916870
 40
1.800000
  0
LINE
  8
LC-004-006-----0
 62
     2
  6
DASHDOT
 10
-61.597042
 20
618.916870
 11
-72.443520
 21
618.916870
  0
LINE
  8
LC-006-012-----0
 62
     2
  6
DASHED
 10
-66.153107
 20
621.916870
 11
-69.653107
 21
621.916870
  0
LINE
  8
LC-006-012-----0
 62
     2
  6
DASHED
 10
-64.653107
 20
620.716858
 11
-66.153107
 21
620.716858
  0
LINE
  8
LC-006-012-----0
 62
     2
  6
DASHED
 10
-66.153107
 20
621.916870
 11
-66.153107
 21
615.916870
  0
LINE
  8
LC-006-012-----0
 62
     2
  6
DASHED
 10
-64.653107
 20
617.116882
 11
-66.153107
 21
617.116882
  0
LINE
  8
LC-006-012-----0
 62
     2
  6
DASHED
 10
-66.153107
 20
615.916870
 11
-69.653107
 21
615.916870
  0
LINE
  8
LC-006-012-----0
 62
     2
  6
DASHED
 10
-66.153107
 20
609.916870
 11
-69.653107
 21
609.916870
  0
LINE
  8
LC-006-012-----0
 62
     2
  6
DASHED
 10
-64.653107
 20
608.716858
 11
-66.153107
 21
608.716858
  0
LINE
  8
LC-006-012-----0
 62
     2
  6
DASHED
 10
-66.153107
 20
609.916870
 11
-66.153107
 21
603.916870
  0
LINE
  8
LC-006-012-----0
 62
     2
  6
DASHED
 10
-64.653107
 20
605.116882
 11
-66.153107
 21
605.116882
  0
LINE
  8
LC-006-012-----0
 62
     2
  6
DASHED
 10
-66.153107
 20
603.916870
 11
-69.653107
 21
603.916870
  0
LINE
  8
LC-004-006-----0
 62
     2
  6
DASHDOT
 10
-61.597042
 20
594.916870
 11
-72.443520
 21
594.916870
  0
LINE
  8
LC-006-012-----0
 62
     2
  6
DASHED
 10
-66.153107
 20
591.916870
 11
-69.653107
 21
591.916870
  0
LINE
  8
LC-006-012-----0
 62
     2
  6
DASHED
 10
-64.653107
 20
593.116882
 11
-66.153107
 21
593.116882
  0
LINE
  8
LC-006-012-----0
 62
     2
  6
DASHED
 10
-66.153107
 20
591.916870
 11
-66.153107
 21
597.916870
  0
LINE
  8
LC-006-012-----0
 62
     2
  6
DASHED
 10
-64.653107
 20
596.716858
 11
-66.153107
 21
596.716858
  0
LINE
  8
LC-006-012-----0
 62
     2
  6
DASHED
 10
-66.153107
 20
597.916870
 11
-69.653107
 21
597.916870
  0
LINE
  8
LC-003-002-----0
 62
     1
  6
CONTINUOUS
 10
-69.153107
 20
590.916870
 11
-69.653107
 21
591.416870
  0
LINE
  8
LC-003-002-----0
 62
     1
  6
CONTINUOUS
 10
-69.153107
 20
622.916870
 11
-69.653107
 21
622.416870
  0
LINE
  8
LC-003-002-----0
 62
     1
  6
CONTINUOUS
 10
-69.153107
 20
590.916870
 11
-69.153107
 21
622.916870
  0
LINE
  8
LC-003-002-----0
 62
     1
  6
CONTINUOUS
 10
-65.153107
 20
622.916870
 11
-64.653107
 21
622.416870
  0
LINE
  8
LC-003-002-----0
 62
     1
  6
CONTINUOUS
 10
-64.653107
 20
591.416870
 11
-65.153107
 21
590.916870
  0
LINE
  8
LC-003-002-----0
 62
     1
  6
CONTINUOUS
 10
-65.153107
 20
622.916870
 11
-65.153107
 21
590.916870
  0
ARC
  8
LC-003-002-----0
 62
     1
  6
CONTINUOUS
 10
-24.153111
 20
614.416870
 40
0.500000
 50
0.000000
 51
90.000003
  0
ARC
  8
LC-003-002-----0
 62
     1
  6
CONTINUOUS
 10
-24.153111
 20
599.416870
 40
0.500000
 50
269.999997
 51
0.000000
  0
LINE
  8
LC-003-002-----0
 62
     1
  6
CONTINUOUS
 10
-64.153107
 20
614.916870
 11
-64.153107
 21
598.916870
  0
LINE
  8
LC-003-002-----0
 62
     1
  6
CONTINUOUS
 10
-64.653107
 20
599.416870
 11
-64.153107
 21
599.416870
  0
LINE
  8
LC-003-002-----0
 62
     1
  6
CONTINUOUS
 10
-64.653107
 20
614.416870
 11
-64.153107
 21
614.416870
  0
CIRCLE
  8
LC-003-002-----0
 62
     1
  6
CONTINUOUS
 10
49.905262
 20
606.916870
 40
15.500000
  0
ENDSEC
  0
EOF
