  0
SECTION
  2
HEADER
  9
$LIMMIN
 10
109.507278
 20
200.855347
  9
$LIMMAX
 10
257.696991
 20
231.023270
  9
$EXTMIN
 10
109.507278
 20
200.855347
  9
$EXTMAX
 10
257.696991
 20
231.023270
  0
ENDSEC
  0
SECTION
  2
TABLES
  0
TABLE
  2
LTYPE
 70
     3
  0
LTYPE
  2
CONTINUOUS
 70
    64
  3
Ausgezogene Linie
 72
    65
 73
     0
 40
0.0
  0
LTYPE
  2
DASHED
 70
    64
  3
__ __ __ __ __ __ __ __ __ __ __ __ __ __ __
 72
    65
 73
     2
 40
0.75
 49
0.5
 49
-0.25
  0
LTYPE
  2
DASHDOT
 70
    64
  3
__ . __ . __ . __ . __ . __ . __ . __ . __ . __
 72
    65
 73
     4
 40
1.0
 49
0.5
 49
-0.25
 49
0.0
 49
-0.25
  0
ENDTAB
  0
TABLE
  2
LAYER
 70
     4
  0
LAYER
  2
LC-003-002-----0
 70
    64
 62
     7
  6
CONTINUOUS
  0
LAYER
  2
LC-004-006-----0
 70
    64
 62
     7
  6
CONTINUOUS
  0
LAYER
  2
LC-008-003-----0
 70
    64
 62
     7
  6
CONTINUOUS
  0
LAYER
  2
LC-006-012-----0
 70
    64
 62
     7
  6
CONTINUOUS
  0
ENDTAB
  0
TABLE
  2
STYLE
 70
     1
  0
STYLE
  2
TXT8
 70
    64
 40
0.0
 41
1.0
 50
0.0
 71
     0
 42
3.500000
  3
TXT8
  4

  0
ENDTAB
  0
ENDSEC
  0
SECTION
  2
BLOCKS
  0
ENDSEC
  0
SECTION
  2
ENTITIES
  0
LINE
  8
LC-004-006-----0
 62
     2
  6
DASHDOT
 10
109.507278
 20
214.245117
 11
190.866226
 21
214.245117
  0
LINE
  8
LC-003-002-----0
 62
     1
  6
CONTINUOUS
 10
132.826797
 20
225.245117
 11
136.776794
 21
225.245117
  0
LINE
  8
LC-003-002-----0
 62
     1
  6
CONTINUOUS
 10
132.826797
 20
203.245117
 11
136.776794
 21
203.245117
  0
LINE
  8
LC-003-002-----0
 62
     1
  6
CONTINUOUS
 10
132.076797
 20
203.995117
 11
132.076797
 21
224.495117
  0
LINE
  8
LC-003-002-----0
 62
     1
  6
CONTINUOUS
 10
164.076797
 20
203.995117
 11
164.076797
 21
224.495117
  0
LINE
  8
LC-003-002-----0
 62
     1
  6
CONTINUOUS
 10
112.562004
 20
220.245117
 11
132.076797
 21
220.245117
  0
LINE
  8
LC-003-002-----0
 62
     1
  6
CONTINUOUS
 10
112.332298
 20
208.245117
 11
132.076797
 21
208.245117
  0
LINE
  8
LC-006-012-----0
 62
     2
  6
CONTINUOUS
 10
112.332298
 20
208.245117
 11
113.331161
 21
211.140900
  0
LINE
  8
LC-006-012-----0
 62
     2
  6
CONTINUOUS
 10
113.331161
 20
211.140900
 11
111.818825
 21
217.754562
  0
LINE
  8
LC-006-012-----0
 62
     2
  6
CONTINUOUS
 10
111.818825
 20
217.754562
 11
112.562004
 21
220.245117
  0
LINE
  8
LC-006-012-----0
 62
     2
  6
CONTINUOUS
 10
186.214874
 20
208.245117
 11
186.882507
 21
210.904877
  0
LINE
  8
LC-006-012-----0
 62
     2
  6
CONTINUOUS
 10
186.882507
 20
210.904877
 11
185.050491
 21
217.282501
  0
LINE
  8
LC-006-012-----0
 62
     2
  6
CONTINUOUS
 10
185.050491
 20
217.282501
 11
185.086273
 21
220.245117
  0
LINE
  8
LC-008-003-----0
 62
     2
  6
DASHED
 10
132.076797
 20
220.245117
 11
164.076797
 21
220.245117
  0
LINE
  8
LC-003-002-----0
 62
     1
  6
CONTINUOUS
 10
164.076797
 20
220.245117
 11
185.086273
 21
220.245117
  0
LINE
  8
LC-008-003-----0
 62
     2
  6
DASHED
 10
132.076797
 20
208.245117
 11
164.076797
 21
208.245117
  0
LINE
  8
LC-003-002-----0
 62
     1
  6
CONTINUOUS
 10
164.076797
 20
208.245117
 11
186.214874
 21
208.245117
  0
LINE
  8
LC-003-002-----0
 62
     1
  6
CONTINUOUS
 10
138.076797
 20
203.245117
 11
158.076797
 21
203.245117
  0
LINE
  8
LC-003-002-----0
 62
     1
  6
CONTINUOUS
 10
158.076797
 20
203.245117
 11
158.076797
 21
225.245117
  0
LINE
  8
LC-003-002-----0
 62
     1
  6
CONTINUOUS
 10
138.076797
 20
203.245117
 11
138.076797
 21
225.245117
  0
LINE
  8
LC-003-002-----0
 62
     1
  6
CONTINUOUS
 10
159.376801
 20
203.245117
 11
159.376801
 21
225.245117
  0
LINE
  8
LC-003-002-----0
 62
     1
  6
CONTINUOUS
 10
136.776794
 20
203.245117
 11
136.776794
 21
225.245117
  0
LINE
  8
LC-003-002-----0
 62
     1
  6
CONTINUOUS
 10
159.376801
 20
203.245117
 11
163.326797
 21
203.245117
  0
LINE
  8
LC-003-002-----0
 62
     1
  6
CONTINUOUS
 10
159.376801
 20
225.245117
 11
163.326797
 21
225.245117
  0
LINE
  8
LC-003-002-----0
 62
     1
  6
CONTINUOUS
 10
138.076797
 20
225.245117
 11
158.076797
 21
225.245117
  0
LINE
  8
LC-003-002-----0
 62
     1
  6
CONTINUOUS
 10
136.776794
 20
203.745117
 11
138.076797
 21
203.745117
  0
LINE
  8
LC-003-002-----0
 62
     1
  6
CONTINUOUS
 10
158.076797
 20
203.745117
 11
159.376801
 21
203.745117
  0
LINE
  8
LC-003-002-----0
 62
     1
  6
CONTINUOUS
 10
158.076797
 20
224.745117
 11
159.376801
 21
224.745117
  0
LINE
  8
LC-003-002-----0
 62
     1
  6
CONTINUOUS
 10
136.776794
 20
224.745117
 11
138.076797
 21
224.745117
  0
ARC
  8
LC-003-002-----0
 62
     1
  6
CONTINUOUS
 10
132.826797
 20
224.495117
 40
0.750000
 50
90.000003
 51
180.000009
  0
ARC
  8
LC-003-002-----0
 62
     1
  6
CONTINUOUS
 10
132.826797
 20
203.995117
 40
0.750000
 50
180.000009
 51
269.999997
  0
ARC
  8
LC-003-002-----0
 62
     1
  6
CONTINUOUS
 10
163.326797
 20
203.995117
 40
0.750000
 50
269.999997
 51
0.000000
  0
ARC
  8
LC-003-002-----0
 62
     1
  6
CONTINUOUS
 10
163.326797
 20
224.495117
 40
0.750000
 50
0.000000
 51
90.000003
  0
CIRCLE
  8
LC-003-002-----0
 62
     1
  6
CONTINUOUS
 10
242.405258
 20
214.245117
 40
11.000000
  0
LINE
  8
LC-004-006-----0
 62
     2
  6
DASHDOT
 10
227.225861
 20
214.245117
 11
257.696991
 21
214.245117
  0
LINE
  8
LC-004-006-----0
 62
     2
  6
DASHDOT
 10
242.405258
 20
231.023270
 11
242.405258
 21
200.855347
  0
CIRCLE
  8
LC-003-002-----0
 62
     1
  6
CONTINUOUS
 10
242.405258
 20
214.245117
 40
6.000000
  0
CIRCLE
  8
LC-003-002-----0
 62
     1
  6
CONTINUOUS
 10
242.405258
 20
214.245117
 40
9.000000
  0
ENDSEC
  0
EOF
