  0
SECTION
  2
HEADER
  9
$LIMMIN
 10
-291.911865
 20
-44.329006
  9
$LIMMAX
 10
-36.780689
 20
12.498833
  9
$EXTMIN
 10
-291.911865
 20
-44.329006
  9
$EXTMAX
 10
-36.780689
 20
12.498833
  0
ENDSEC
  0
SECTION
  2
TABLES
  0
TABLE
  2
LTYPE
 70
     3
  0
LTYPE
  2
CONTINUOUS
 70
    64
  3
Ausgezogene Linie
 72
    65
 73
     0
 40
0.0
  0
LTYPE
  2
DASHED
 70
    64
  3
__ __ __ __ __ __ __ __ __ __ __ __ __ __ __
 72
    65
 73
     2
 40
0.75
 49
0.5
 49
-0.25
  0
LTYPE
  2
DASHDOT
 70
    64
  3
__ . __ . __ . __ . __ . __ . __ . __ . __ . __
 72
    65
 73
     4
 40
1.0
 49
0.5
 49
-0.25
 49
0.0
 49
-0.25
  0
ENDTAB
  0
TABLE
  2
LAYER
 70
     4
  0
LAYER
  2
LC-003-002-----0
 70
    64
 62
     7
  6
CONTINUOUS
  0
LAYER
  2
LC-004-006-----0
 70
    64
 62
     7
  6
CONTINUOUS
  0
LAYER
  2
LC-008-003-----0
 70
    64
 62
     7
  6
CONTINUOUS
  0
LAYER
  2
LC-006-012-----0
 70
    64
 62
     7
  6
CONTINUOUS
  0
ENDTAB
  0
TABLE
  2
STYLE
 70
     1
  0
STYLE
  2
TXT8
 70
    64
 40
0.0
 41
1.0
 50
0.0
 71
     0
 42
3.500000
  3
TXT8
  4

  0
ENDTAB
  0
ENDSEC
  0
SECTION
  2
BLOCKS
  0
ENDSEC
  0
SECTION
  2
ENTITIES
  0
LINE
  8
LC-004-006-----0
 62
     2
  6
DASHDOT
 10
-96.334106
 20
-17.959644
 11
-36.780689
 21
-17.959644
  0
LINE
  8
LC-004-006-----0
 62
     2
  6
DASHDOT
 10
-66.669922
 20
12.498833
 11
-66.669922
 21
-44.329006
  0
CIRCLE
  8
LC-003-002-----0
 62
     1
  6
CONTINUOUS
 10
-66.669922
 20
-17.959644
 40
15.000000
  0
ARC
  8
LC-003-002-----0
 62
     1
  6
CONTINUOUS
 10
-66.669922
 20
-17.959644
 40
23.500000
 50
294.999999
 51
244.999996
  0
ARC
  8
LC-003-002-----0
 62
     1
  6
CONTINUOUS
 10
-66.669922
 20
-17.959644
 40
15.500000
 50
294.999999
 51
244.999996
  0
LINE
  8
LC-003-002-----0
 62
     1
  6
CONTINUOUS
 10
-60.119335
 20
-32.007416
 11
-56.738392
 21
-39.257877
  0
LINE
  8
LC-003-002-----0
 62
     1
  6
CONTINUOUS
 10
-73.220505
 20
-32.007416
 11
-76.601448
 21
-39.257877
  0
LINE
  8
LC-004-006-----0
 62
     2
  6
DASHDOT
 10
-291.911865
 20
-17.959644
 11
-160.537216
 21
-17.959644
  0
LINE
  8
LC-003-002-----0
 62
     1
  6
CONTINUOUS
 10
-258.708374
 20
5.540356
 11
-251.558411
 21
5.540356
  0
LINE
  8
LC-003-002-----0
 62
     1
  6
CONTINUOUS
 10
-258.708374
 20
-39.257877
 11
-251.558411
 21
-39.257877
  0
LINE
  8
LC-003-002-----0
 62
     1
  6
CONTINUOUS
 10
-259.708374
 20
4.540356
 11
-259.708374
 21
-38.257877
  0
LINE
  8
LC-003-002-----0
 62
     1
  6
CONTINUOUS
 10
-191.708389
 20
4.540356
 11
-191.708389
 21
-38.257877
  0
LINE
  8
LC-003-002-----0
 62
     1
  6
CONTINUOUS
 10
-285.323090
 20
-2.959644
 11
-259.708374
 21
-2.959644
  0
LINE
  8
LC-003-002-----0
 62
     1
  6
CONTINUOUS
 10
-286.614807
 20
-32.959644
 11
-259.708374
 21
-32.959644
  0
LINE
  8
LC-006-012-----0
 62
     2
  6
CONTINUOUS
 10
-286.614807
 20
-32.959644
 11
-285.216309
 21
-27.922714
  0
LINE
  8
LC-006-012-----0
 62
     2
  6
CONTINUOUS
 10
-285.216309
 20
-27.922714
 11
-287.650787
 21
-11.354081
  0
LINE
  8
LC-006-012-----0
 62
     2
  6
CONTINUOUS
 10
-287.650787
 20
-11.354080
 11
-285.323090
 21
-2.959644
  0
LINE
  8
LC-006-012-----0
 62
     2
  6
CONTINUOUS
 10
-165.483475
 20
-32.959644
 11
-164.290390
 21
-25.419165
  0
LINE
  8
LC-006-012-----0
 62
     2
  6
CONTINUOUS
 10
-164.290390
 20
-25.419165
 11
-167.116119
 21
-12.188597
  0
LINE
  8
LC-006-012-----0
 62
     2
  6
CONTINUOUS
 10
-167.116119
 20
-12.188597
 11
-166.173477
 21
-2.959644
  0
LINE
  8
LC-008-003-----0
 62
     2
  6
DASHED
 10
-259.708374
 20
-2.959644
 11
-191.708405
 21
-2.959644
  0
LINE
  8
LC-003-002-----0
 62
     1
  6
CONTINUOUS
 10
-191.708389
 20
-2.959644
 11
-166.173477
 21
-2.959644
  0
LINE
  8
LC-008-003-----0
 62
     2
  6
DASHED
 10
-259.708374
 20
-32.959644
 11
-191.708405
 21
-32.959644
  0
LINE
  8
LC-003-002-----0
 62
     1
  6
CONTINUOUS
 10
-191.708389
 20
-32.959644
 11
-165.483475
 21
-32.959644
  0
LINE
  8
LC-003-002-----0
 62
     1
  6
CONTINUOUS
 10
-251.558395
 20
-37.757877
 11
-249.708389
 21
-37.757877
  0
LINE
  8
LC-003-002-----0
 62
     1
  6
CONTINUOUS
 10
-201.708389
 20
5.540356
 11
-201.708389
 21
-39.257877
  0
LINE
  8
LC-003-002-----0
 62
     1
  6
CONTINUOUS
 10
-249.708389
 20
5.540356
 11
-249.708389
 21
-39.257877
  0
LINE
  8
LC-003-002-----0
 62
     1
  6
CONTINUOUS
 10
-199.858383
 20
5.540356
 11
-199.858383
 21
-39.257877
  0
LINE
  8
LC-003-002-----0
 62
     1
  6
CONTINUOUS
 10
-251.558395
 20
5.540356
 11
-251.558395
 21
-39.257877
  0
LINE
  8
LC-003-002-----0
 62
     1
  6
CONTINUOUS
 10
-249.708389
 20
-39.257877
 11
-201.708389
 21
-39.257877
  0
LINE
  8
LC-003-002-----0
 62
     1
  6
CONTINUOUS
 10
-199.858383
 20
-39.257877
 11
-192.708389
 21
-39.257877
  0
LINE
  8
LC-003-002-----0
 62
     1
  6
CONTINUOUS
 10
-199.858383
 20
5.540356
 11
-192.708389
 21
5.540356
  0
LINE
  8
LC-003-002-----0
 62
     1
  6
CONTINUOUS
 10
-249.708389
 20
5.540356
 11
-201.708389
 21
5.540356
  0
LINE
  8
LC-003-002-----0
 62
     1
  6
CONTINUOUS
 10
-251.558395
 20
4.040356
 11
-249.708389
 21
4.040356
  0
LINE
  8
LC-003-002-----0
 62
     1
  6
CONTINUOUS
 10
-201.708389
 20
4.040356
 11
-199.858383
 21
4.040356
  0
LINE
  8
LC-003-002-----0
 62
     1
  6
CONTINUOUS
 10
-201.708389
 20
-37.757877
 11
-199.858383
 21
-37.757877
  0
ARC
  8
LC-003-002-----0
 62
     1
  6
CONTINUOUS
 10
-258.708374
 20
4.540356
 40
1.000000
 50
90.000003
 51
180.000009
  0
ARC
  8
LC-003-002-----0
 62
     1
  6
CONTINUOUS
 10
-258.708374
 20
-38.257877
 40
1.000000
 50
180.000009
 51
269.999997
  0
ARC
  8
LC-003-002-----0
 62
     1
  6
CONTINUOUS
 10
-192.708389
 20
-38.257877
 40
1.000000
 50
269.999997
 51
0.000000
  0
ARC
  8
LC-003-002-----0
 62
     1
  6
CONTINUOUS
 10
-192.708389
 20
4.540356
 40
1.000000
 50
0.000000
 51
90.000003
  0
ARC
  8
LC-003-002-----0
 62
     1
  6
CONTINUOUS
 10
-66.669922
 20
-17.959644
 40
20.000000
 50
294.999999
 51
244.999996
  0
LINE
  8
LC-004-006-----0
 62
     2
  6
DASHDOT
 10
-93.051079
 20
-15.959644
 11
-77.913170
 21
-15.959644
  0
LINE
  8
LC-008-003-----0
 62
     2
  6
DASHED
 10
-88.284660
 20
-15.209644
 11
-81.924019
 21
-15.209644
  0
LINE
  8
LC-008-003-----0
 62
     2
  6
DASHED
 10
-88.284660
 20
-16.709644
 11
-82.119431
 21
-16.709644
  0
LINE
  8
LC-008-003-----0
 62
     2
  6
DASHED
 10
-89.860649
 20
-14.159644
 11
-88.284660
 21
-14.159644
  0
LINE
  8
LC-008-003-----0
 62
     2
  6
DASHED
 10
-90.169067
 20
-17.759644
 11
-88.284660
 21
-17.759644
  0
LINE
  8
LC-004-006-----0
 62
     2
  6
DASHDOT
 10
-222.629211
 20
-15.959644
 11
-228.782379
 21
-15.959644
  0
LINE
  8
LC-008-003-----0
 62
     2
  6
DASHED
 10
-88.284660
 20
-17.759644
 11
-88.284660
 21
-14.159644
  0
LINE
  8
LC-004-006-----0
 62
     2
  6
DASHDOT
 10
-225.708389
 20
-12.620229
 11
-225.708389
 21
-19.350836
  0
CIRCLE
  8
LC-008-003-----0
 62
     2
  6
DASHED
 10
-225.708389
 20
-15.959644
 40
0.750000
  0
CIRCLE
  8
LC-008-003-----0
 62
     2
  6
DASHED
 10
-225.708389
 20
-15.959644
 40
1.500000
  0
ENDSEC
  0
EOF
