  0
SECTION
  2
HEADER
  9
$LIMMIN
 10
-299.838440
 20
-209.935287
  9
$LIMMAX
 10
-8.999979
 20
-131.704483
  9
$EXTMIN
 10
-299.838440
 20
-209.935287
  9
$EXTMAX
 10
-8.999979
 20
-131.704483
  0
ENDSEC
  0
SECTION
  2
TABLES
  0
TABLE
  2
LTYPE
 70
     3
  0
LTYPE
  2
CONTINUOUS
 70
    64
  3
Ausgezogene Linie
 72
    65
 73
     0
 40
0.0
  0
LTYPE
  2
DASHED
 70
    64
  3
__ __ __ __ __ __ __ __ __ __ __ __ __ __ __
 72
    65
 73
     2
 40
0.75
 49
0.5
 49
-0.25
  0
LTYPE
  2
DASHDOT
 70
    64
  3
__ . __ . __ . __ . __ . __ . __ . __ . __ . __
 72
    65
 73
     4
 40
1.0
 49
0.5
 49
-0.25
 49
0.0
 49
-0.25
  0
ENDTAB
  0
TABLE
  2
LAYER
 70
     4
  0
LAYER
  2
LC-003-002-----0
 70
    64
 62
     7
  6
CONTINUOUS
  0
LAYER
  2
LC-004-006-----0
 70
    64
 62
     7
  6
CONTINUOUS
  0
LAYER
  2
LC-008-003-----0
 70
    64
 62
     7
  6
CONTINUOUS
  0
LAYER
  2
LC-006-012-----0
 70
    64
 62
     7
  6
CONTINUOUS
  0
ENDTAB
  0
TABLE
  2
STYLE
 70
     1
  0
STYLE
  2
TXT8
 70
    64
 40
0.0
 41
1.0
 50
0.0
 71
     0
 42
3.500000
  3
TXT8
  4

  0
ENDTAB
  0
ENDSEC
  0
SECTION
  2
BLOCKS
  0
ENDSEC
  0
SECTION
  2
ENTITIES
  0
LINE
  8
LC-004-006-----0
 62
     2
  6
DASHDOT
 10
-85.311089
 20
-170.122955
 11
-8.999979
 21
-170.122955
  0
LINE
  8
LC-004-006-----0
 62
     2
  6
DASHDOT
 10
-47.705788
 20
-131.704483
 11
-47.705788
 21
-209.935287
  0
CIRCLE
  8
LC-003-002-----0
 62
     1
  6
CONTINUOUS
 10
-47.705788
 20
-170.122955
 40
20.000000
  0
ARC
  8
LC-003-002-----0
 62
     1
  6
CONTINUOUS
 10
-47.705788
 20
-170.122955
 40
31.000000
 50
294.999999
 51
244.999996
  0
ARC
  8
LC-003-002-----0
 62
     1
  6
CONTINUOUS
 10
-47.705788
 20
-170.122955
 40
21.000000
 50
294.999999
 51
244.999996
  0
LINE
  8
LC-003-002-----0
 62
     1
  6
CONTINUOUS
 10
-38.830803
 20
-189.155426
 11
-34.604622
 21
-198.218506
  0
LINE
  8
LC-003-002-----0
 62
     1
  6
CONTINUOUS
 10
-56.580769
 20
-189.155426
 11
-60.806953
 21
-198.218506
  0
LINE
  8
LC-004-006-----0
 62
     2
  6
DASHDOT
 10
-299.838440
 20
-170.122955
 11
-144.665604
 21
-170.122955
  0
LINE
  8
LC-003-002-----0
 62
     1
  6
CONTINUOUS
 10
-258.458374
 20
-139.122955
 11
-249.858398
 21
-139.122955
  0
LINE
  8
LC-003-002-----0
 62
     1
  6
CONTINUOUS
 10
-258.458374
 20
-198.218506
 11
-249.858398
 21
-198.218506
  0
LINE
  8
LC-003-002-----0
 62
     1
  6
CONTINUOUS
 10
-259.708374
 20
-140.372955
 11
-259.708374
 21
-196.968506
  0
LINE
  8
LC-003-002-----0
 62
     1
  6
CONTINUOUS
 10
-179.708389
 20
-140.372955
 11
-179.708389
 21
-196.968506
  0
LINE
  8
LC-003-002-----0
 62
     1
  6
CONTINUOUS
 10
-289.906921
 20
-150.122955
 11
-259.708374
 21
-150.122955
  0
LINE
  8
LC-003-002-----0
 62
     1
  6
CONTINUOUS
 10
-292.392151
 20
-190.122955
 11
-259.708374
 21
-190.122955
  0
LINE
  8
LC-006-012-----0
 62
     2
  6
CONTINUOUS
 10
-292.392151
 20
-190.122955
 11
-289.774994
 21
-178.746750
  0
LINE
  8
LC-006-012-----0
 62
     2
  6
CONTINUOUS
 10
-289.774994
 20
-178.746750
 11
-293.050690
 21
-162.526840
  0
LINE
  8
LC-006-012-----0
 62
     2
  6
CONTINUOUS
 10
-293.050690
 20
-162.526840
 11
-289.906921
 21
-150.122955
  0
LINE
  8
LC-006-012-----0
 62
     2
  6
CONTINUOUS
 10
-152.123642
 20
-190.122955
 11
-149.055710
 21
-179.881195
  0
LINE
  8
LC-006-012-----0
 62
     2
  6
CONTINUOUS
 10
-149.055710
 20
-179.881195
 11
-152.989914
 21
-160.575317
  0
LINE
  8
LC-006-012-----0
 62
     2
  6
CONTINUOUS
 10
-152.989914
 20
-160.575317
 11
-151.575577
 21
-150.122955
  0
LINE
  8
LC-008-003-----0
 62
     2
  6
DASHED
 10
-259.708374
 20
-150.122955
 11
-179.708405
 21
-150.122955
  0
LINE
  8
LC-003-002-----0
 62
     1
  6
CONTINUOUS
 10
-179.708389
 20
-150.122955
 11
-151.575577
 21
-150.122955
  0
LINE
  8
LC-008-003-----0
 62
     2
  6
DASHED
 10
-259.708374
 20
-190.122955
 11
-179.708405
 21
-190.122955
  0
LINE
  8
LC-003-002-----0
 62
     1
  6
CONTINUOUS
 10
-179.708389
 20
-190.122955
 11
-152.123642
 21
-190.122955
  0
LINE
  8
LC-003-002-----0
 62
     1
  6
CONTINUOUS
 10
-191.708389
 20
-198.218506
 11
-191.708389
 21
-139.122955
  0
LINE
  8
LC-003-002-----0
 62
     1
  6
CONTINUOUS
 10
-189.558395
 20
-198.218506
 11
-189.558395
 21
-139.122955
  0
LINE
  8
LC-003-002-----0
 62
     1
  6
CONTINUOUS
 10
-191.708389
 20
-140.622955
 11
-189.558395
 21
-140.622955
  0
LINE
  8
LC-003-002-----0
 62
     1
  6
CONTINUOUS
 10
-191.708389
 20
-196.718506
 11
-189.558395
 21
-196.718506
  0
LINE
  8
LC-003-002-----0
 62
     1
  6
CONTINUOUS
 10
-189.558395
 20
-139.122955
 11
-180.958389
 21
-139.122955
  0
LINE
  8
LC-003-002-----0
 62
     1
  6
CONTINUOUS
 10
-189.558395
 20
-198.218506
 11
-180.958389
 21
-198.218506
  0
LINE
  8
LC-003-002-----0
 62
     1
  6
CONTINUOUS
 10
-247.708389
 20
-198.218506
 11
-247.708389
 21
-139.122955
  0
LINE
  8
LC-003-002-----0
 62
     1
  6
CONTINUOUS
 10
-249.858383
 20
-198.218506
 11
-249.858383
 21
-139.122955
  0
LINE
  8
LC-003-002-----0
 62
     1
  6
CONTINUOUS
 10
-247.708389
 20
-140.622955
 11
-249.858383
 21
-140.622955
  0
LINE
  8
LC-003-002-----0
 62
     1
  6
CONTINUOUS
 10
-247.708389
 20
-196.718506
 11
-249.858383
 21
-196.718506
  0
LINE
  8
LC-003-002-----0
 62
     1
  6
CONTINUOUS
 10
-247.708389
 20
-139.122955
 11
-191.708389
 21
-139.122955
  0
LINE
  8
LC-003-002-----0
 62
     1
  6
CONTINUOUS
 10
-247.708389
 20
-198.218506
 11
-191.708389
 21
-198.218506
  0
ARC
  8
LC-003-002-----0
 62
     1
  6
CONTINUOUS
 10
-258.458374
 20
-140.372955
 40
1.250000
 50
90.000003
 51
180.000009
  0
ARC
  8
LC-003-002-----0
 62
     1
  6
CONTINUOUS
 10
-258.458374
 20
-196.968506
 40
1.250000
 50
180.000009
 51
269.999997
  0
ARC
  8
LC-003-002-----0
 62
     1
  6
CONTINUOUS
 10
-180.958389
 20
-196.968506
 40
1.250000
 50
269.999997
 51
0.000000
  0
ARC
  8
LC-003-002-----0
 62
     1
  6
CONTINUOUS
 10
-180.958389
 20
-140.372955
 40
1.250000
 50
0.000000
 51
90.000003
  0
ARC
  8
LC-003-002-----0
 62
     1
  6
CONTINUOUS
 10
-47.705788
 20
-170.122955
 40
26.000000
 50
294.999999
 51
244.999996
  0
LINE
  8
LC-004-006-----0
 62
     2
  6
DASHDOT
 10
-83.638489
 20
-168.622955
 11
-64.034164
 21
-168.622955
  0
LINE
  8
LC-008-003-----0
 62
     2
  6
DASHED
 10
-78.529640
 20
-166.822968
 11
-68.444878
 21
-166.822968
  0
LINE
  8
LC-008-003-----0
 62
     2
  6
DASHED
 10
-78.704330
 20
-170.422958
 11
-68.703644
 21
-170.422958
  0
LINE
  8
LC-004-006-----0
 62
     2
  6
DASHDOT
 10
-224.339951
 20
-168.622955
 11
-214.987579
 21
-168.622955
  0
LINE
  8
LC-004-006-----0
 62
     2
  6
DASHDOT
 10
-219.708389
 20
-164.234436
 11
-219.708389
 21
-173.011536
  0
CIRCLE
  8
LC-008-003-----0
 62
     2
  6
DASHED
 10
-219.708389
 20
-168.622955
 40
1.600000
  0
ENDSEC
  0
EOF
