  0
SECTION
  2
HEADER
  9
$LIMMIN
 10
-137.465927
 20
197.883423
  9
$LIMMAX
 10
-78.382431
 20
213.883423
  9
$EXTMIN
 10
-137.465927
 20
197.883423
  9
$EXTMAX
 10
-78.382431
 20
213.883423
  0
ENDSEC
  0
SECTION
  2
TABLES
  0
TABLE
  2
LTYPE
 70
     3
  0
LTYPE
  2
CONTINUOUS
 70
    64
  3
Ausgezogene Linie
 72
    65
 73
     0
 40
0.0
  0
LTYPE
  2
DASHED
 70
    64
  3
__ __ __ __ __ __ __ __ __ __ __ __ __ __ __
 72
    65
 73
     2
 40
0.75
 49
0.5
 49
-0.25
  0
LTYPE
  2
DASHDOT
 70
    64
  3
__ . __ . __ . __ . __ . __ . __ . __ . __ . __
 72
    65
 73
     4
 40
1.0
 49
0.5
 49
-0.25
 49
0.0
 49
-0.25
  0
ENDTAB
  0
TABLE
  2
LAYER
 70
     4
  0
LAYER
  2
LC-003-002-----0
 70
    64
 62
     7
  6
CONTINUOUS
  0
LAYER
  2
LC-004-006-----0
 70
    64
 62
     7
  6
CONTINUOUS
  0
LAYER
  2
LC-006-012-----0
 70
    64
 62
     7
  6
CONTINUOUS
  0
LAYER
  2
LC-007-004-----0
 70
    64
 62
     7
  6
CONTINUOUS
  0
ENDTAB
  0
TABLE
  2
STYLE
 70
     1
  0
STYLE
  2
TXT8
 70
    64
 40
0.0
 41
1.0
 50
0.0
 71
     0
 42
3.500000
  3
TXT8
  4

  0
ENDTAB
  0
ENDSEC
  0
SECTION
  2
BLOCKS
  0
ENDSEC
  0
SECTION
  2
ENTITIES
  0
LINE
  8
LC-004-006-----0
 62
     2
  6
DASHDOT
 10
-137.465927
 20
205.883423
 11
-78.382431
 21
205.883423
  0
LINE
  8
LC-003-002-----0
 62
     1
  6
CONTINUOUS
 10
-119.789635
 20
213.883423
 11
-115.889641
 21
213.883423
  0
LINE
  8
LC-003-002-----0
 62
     1
  6
CONTINUOUS
 10
-119.789635
 20
197.883423
 11
-115.889641
 21
197.883423
  0
LINE
  8
LC-003-002-----0
 62
     1
  6
CONTINUOUS
 10
-120.289635
 20
198.383423
 11
-120.289635
 21
213.383423
  0
LINE
  8
LC-003-002-----0
 62
     1
  6
CONTINUOUS
 10
-95.289635
 20
198.383423
 11
-95.289635
 21
213.383423
  0
LINE
  8
LC-003-002-----0
 62
     1
  6
CONTINUOUS
 10
-134.626480
 20
209.883423
 11
-120.289635
 21
209.883423
  0
LINE
  8
LC-003-002-----0
 62
     1
  6
CONTINUOUS
 10
-136.030121
 20
201.883423
 11
-120.289635
 21
201.883423
  0
LINE
  8
LC-006-012-----0
 62
     2
  6
DASHED
 10
-120.289635
 20
209.883423
 11
-95.289635
 21
209.883423
  0
LINE
  8
LC-003-002-----0
 62
     1
  6
CONTINUOUS
 10
-95.289635
 20
209.883423
 11
-81.177704
 21
209.883423
  0
LINE
  8
LC-006-012-----0
 62
     2
  6
DASHED
 10
-120.289635
 20
201.883423
 11
-95.289635
 21
201.883423
  0
LINE
  8
LC-003-002-----0
 62
     1
  6
CONTINUOUS
 10
-95.289635
 20
201.883423
 11
-80.666542
 21
201.883423
  0
LINE
  8
LC-003-002-----0
 62
     1
  6
CONTINUOUS
 10
-114.789635
 20
213.883423
 11
-100.789635
 21
213.883423
  0
LINE
  8
LC-003-002-----0
 62
     1
  6
CONTINUOUS
 10
-100.789635
 20
197.883423
 11
-100.789635
 21
213.883423
  0
LINE
  8
LC-003-002-----0
 62
     1
  6
CONTINUOUS
 10
-114.789635
 20
197.883423
 11
-114.789635
 21
213.883423
  0
LINE
  8
LC-003-002-----0
 62
     1
  6
CONTINUOUS
 10
-99.689636
 20
197.883423
 11
-99.689636
 21
213.883423
  0
LINE
  8
LC-003-002-----0
 62
     1
  6
CONTINUOUS
 10
-115.889641
 20
197.883423
 11
-115.889641
 21
213.883423
  0
LINE
  8
LC-003-002-----0
 62
     1
  6
CONTINUOUS
 10
-114.789635
 20
197.883423
 11
-100.789635
 21
197.883423
  0
LINE
  8
LC-003-002-----0
 62
     1
  6
CONTINUOUS
 10
-99.689636
 20
197.883423
 11
-95.789635
 21
197.883423
  0
LINE
  8
LC-003-002-----0
 62
     1
  6
CONTINUOUS
 10
-99.689636
 20
213.883423
 11
-95.789635
 21
213.883423
  0
LINE
  8
LC-003-002-----0
 62
     1
  6
CONTINUOUS
 10
-115.889641
 20
213.483429
 11
-114.789635
 21
213.483429
  0
LINE
  8
LC-003-002-----0
 62
     1
  6
CONTINUOUS
 10
-100.789635
 20
213.483429
 11
-99.689636
 21
213.483429
  0
LINE
  8
LC-007-004-----0
 62
     2
  6
CONTINUOUS
 10
-136.030121
 20
201.883423
 11
-134.716415
 21
203.830276
  0
LINE
  8
LC-007-004-----0
 62
     2
  6
CONTINUOUS
 10
-134.716415
 20
203.830276
 11
-135.455475
 21
208.398117
  0
LINE
  8
LC-003-002-----0
 62
     1
  6
CONTINUOUS
 10
-100.789635
 20
198.283417
 11
-99.689636
 21
198.283417
  0
LINE
  8
LC-003-002-----0
 62
     1
  6
CONTINUOUS
 10
-115.889641
 20
198.283417
 11
-114.789635
 21
198.283417
  0
LINE
  8
LC-007-004-----0
 62
     2
  6
CONTINUOUS
 10
-135.455475
 20
208.398117
 11
-134.626480
 21
209.883423
  0
LINE
  8
LC-007-004-----0
 62
     2
  6
CONTINUOUS
 10
-80.666542
 20
201.883423
 11
-81.193962
 21
203.780670
  0
LINE
  8
LC-007-004-----0
 62
     2
  6
CONTINUOUS
 10
-81.193962
 20
203.780670
 11
-80.320526
 21
207.850388
  0
LINE
  8
LC-007-004-----0
 62
     2
  6
CONTINUOUS
 10
-80.320526
 20
207.850388
 11
-81.177704
 21
209.883423
  0
ARC
  8
LC-003-002-----0
 62
     1
  6
CONTINUOUS
 10
-119.789635
 20
213.383423
 40
0.500000
 50
90.000003
 51
180.000009
  0
ARC
  8
LC-003-002-----0
 62
     1
  6
CONTINUOUS
 10
-119.789635
 20
198.383423
 40
0.500000
 50
180.000009
 51
269.999997
  0
ARC
  8
LC-003-002-----0
 62
     1
  6
CONTINUOUS
 10
-95.789635
 20
198.383423
 40
0.500000
 50
269.999997
 51
0.000000
  0
ARC
  8
LC-003-002-----0
 62
     1
  6
CONTINUOUS
 10
-95.789635
 20
213.383423
 40
0.500000
 50
0.000000
 51
90.000003
  0
ENDSEC
  0
EOF
