  0
SECTION
  2
HEADER
  9
$LIMMIN
 10
-262.277893
 20
458.883942
  9
$LIMMAX
 10
-114.088188
 20
489.051849
  9
$EXTMIN
 10
-262.277893
 20
458.883942
  9
$EXTMAX
 10
-114.088188
 20
489.051849
  0
ENDSEC
  0
SECTION
  2
TABLES
  0
TABLE
  2
LTYPE
 70
     3
  0
LTYPE
  2
CONTINUOUS
 70
    64
  3
Ausgezogene Linie
 72
    65
 73
     0
 40
0.0
  0
LTYPE
  2
DASHED
 70
    64
  3
__ __ __ __ __ __ __ __ __ __ __ __ __ __ __
 72
    65
 73
     2
 40
0.75
 49
0.5
 49
-0.25
  0
LTYPE
  2
DASHDOT
 70
    64
  3
__ . __ . __ . __ . __ . __ . __ . __ . __ . __
 72
    65
 73
     4
 40
1.0
 49
0.5
 49
-0.25
 49
0.0
 49
-0.25
  0
ENDTAB
  0
TABLE
  2
LAYER
 70
     5
  0
LAYER
  2
LC-INFO-1-1-MM-A0-0
 70
    64
 62
     7
  6
CONTINUOUS
  0
LAYER
  2
LC-004-006-----0
 70
    64
 62
     7
  6
CONTINUOUS
  0
LAYER
  2
LC-003-002-----0
 70
    64
 62
     7
  6
CONTINUOUS
  0
LAYER
  2
LC-006-012-----0
 70
    64
 62
     7
  6
CONTINUOUS
  0
LAYER
  2
LC-007-004-----0
 70
    64
 62
     7
  6
CONTINUOUS
  0
ENDTAB
  0
TABLE
  2
STYLE
 70
     1
  0
STYLE
  2
TXT8
 70
    64
 40
0.0
 41
1.0
 50
0.0
 71
     0
 42
3.500000
  3
TXT8
  4

  0
ENDTAB
  0
ENDSEC
  0
SECTION
  2
BLOCKS
  0
ENDSEC
  0
SECTION
  2
ENTITIES
  0
ARC
  8
LC-006-012-----0
 62
     2
  6
DASHED
 10
-223.641586
 20
473.803619
 40
1.733203
 50
0.000000
 51
30.586502
  0
ARC
  8
LC-006-012-----0
 62
     2
  6
DASHED
 10
-223.682602
 20
473.778259
 40
1.781407
 50
30.616989
 51
60.610416
  0
ARC
  8
LC-006-012-----0
 62
     2
  6
DASHED
 10
-223.707413
 20
473.736359
 40
1.830091
 50
60.577521
 51
90.030554
  0
ARC
  8
LC-006-012-----0
 62
     2
  6
DASHED
 10
-223.709366
 20
473.736359
 40
1.830091
 50
89.969444
 51
119.422484
  0
ARC
  8
LC-006-012-----0
 62
     2
  6
DASHED
 10
-223.734177
 20
473.778259
 40
1.781407
 50
119.389589
 51
149.383013
  0
ARC
  8
LC-006-012-----0
 62
     2
  6
DASHED
 10
-223.775192
 20
473.803619
 40
1.733203
 50
149.413503
 51
179.967043
  0
ARC
  8
LC-006-012-----0
 62
     2
  6
DASHED
 10
-223.775192
 20
473.805603
 40
1.733203
 50
180.032957
 51
210.586497
  0
ARC
  8
LC-006-012-----0
 62
     2
  6
DASHED
 10
-223.734177
 20
473.830963
 40
1.781407
 50
210.616987
 51
240.610411
  0
ARC
  8
LC-006-012-----0
 62
     2
  6
DASHED
 10
-223.709366
 20
473.872864
 40
1.830091
 50
240.577516
 51
270.030556
  0
ARC
  8
LC-006-012-----0
 62
     2
  6
DASHED
 10
-223.707413
 20
473.872864
 40
1.830091
 50
269.969446
 51
299.422479
  0
ARC
  8
LC-006-012-----0
 62
     2
  6
DASHED
 10
-223.682602
 20
473.830963
 40
1.781407
 50
299.389584
 51
329.383011
  0
ARC
  8
LC-006-012-----0
 62
     2
  6
DASHED
 10
-223.641586
 20
473.805603
 40
1.733203
 50
329.413498
 51
0.000000
  0
ARC
  8
LC-006-012-----0
 62
     2
  6
DASHED
 10
-223.474503
 20
473.800354
 40
0.516140
 50
0.471431
 51
36.361878
  0
ARC
  8
LC-006-012-----0
 62
     2
  6
DASHED
 10
-223.618118
 20
473.692413
 40
0.695778
 50
36.508338
 51
65.844123
  0
ARC
  8
LC-006-012-----0
 62
     2
  6
DASHED
 10
-223.704971
 20
473.513977
 40
0.894172
 50
65.445390
 51
90.218978
  0
ARC
  8
LC-006-012-----0
 62
     2
  6
DASHED
 10
-223.711807
 20
473.513977
 40
0.894172
 50
89.781027
 51
114.554608
  0
ARC
  8
LC-006-012-----0
 62
     2
  6
DASHED
 10
-223.798660
 20
473.692413
 40
0.695778
 50
114.155882
 51
143.491660
  0
ARC
  8
LC-006-012-----0
 62
     2
  6
DASHED
 10
-223.942261
 20
473.800354
 40
0.516140
 50
143.638127
 51
179.528572
  0
ARC
  8
LC-006-012-----0
 62
     2
  6
DASHED
 10
-223.942261
 20
473.808838
 40
0.516140
 50
180.471428
 51
216.361873
  0
ARC
  8
LC-006-012-----0
 62
     2
  6
DASHED
 10
-223.798660
 20
473.916779
 40
0.695778
 50
216.508340
 51
245.844118
  0
ARC
  8
LC-006-012-----0
 62
     2
  6
DASHED
 10
-223.711807
 20
474.095245
 40
0.894172
 50
245.445392
 51
270.218973
  0
ARC
  8
LC-006-012-----0
 62
     2
  6
DASHED
 10
-223.704971
 20
474.095245
 40
0.894172
 50
269.781022
 51
294.554610
  0
ARC
  8
LC-006-012-----0
 62
     2
  6
DASHED
 10
-223.618118
 20
473.916779
 40
0.695778
 50
294.155877
 51
323.491662
  0
ARC
  8
LC-006-012-----0
 62
     2
  6
DASHED
 10
-223.474503
 20
473.808838
 40
0.516140
 50
323.638122
 51
359.528569
  0
LINE
  8
LC-004-006-----0
 62
     1
  6
CONTINUOUS
 10
-125.446678
 20
467.416534
 11
-122.457405
 21
463.725098
  0
LINE
  8
LC-004-006-----0
 62
     1
  6
CONTINUOUS
 10
-133.313187
 20
467.416534
 11
-136.302460
 21
463.725098
  0
ARC
  8
LC-004-006-----0
 62
     1
  6
CONTINUOUS
 10
-129.379929
 20
472.273712
 40
11.000000
 50
308.999999
 51
231.000007
  0
ARC
  8
LC-004-006-----0
 62
     1
  6
CONTINUOUS
 10
-129.379929
 20
472.273712
 40
6.250000
 50
308.999999
 51
231.000007
  0
LINE
  8
LC-003-002-----0
 62
     2
  6
DASHDOT
 10
-144.559326
 20
472.273712
 11
-114.088188
 21
472.273712
  0
LINE
  8
LC-003-002-----0
 62
     2
  6
DASHDOT
 10
-129.379929
 20
489.051849
 11
-129.379929
 21
458.883942
  0
CIRCLE
  8
LC-004-006-----0
 62
     1
  6
CONTINUOUS
 10
-129.379929
 20
472.273712
 40
6.000000
  0
ARC
  8
LC-004-006-----0
 62
     1
  6
CONTINUOUS
 10
-239.208389
 20
482.773712
 40
0.500000
 50
90.000003
 51
180.000009
  0
ARC
  8
LC-004-006-----0
 62
     1
  6
CONTINUOUS
 10
-239.208389
 20
464.186829
 40
0.500000
 50
180.000009
 51
269.999997
  0
ARC
  8
LC-004-006-----0
 62
     1
  6
CONTINUOUS
 10
-208.208389
 20
464.186829
 40
0.500000
 50
269.999997
 51
0.000000
  0
ARC
  8
LC-004-006-----0
 62
     1
  6
CONTINUOUS
 10
-208.208389
 20
482.773712
 40
0.500000
 50
0.000000
 51
90.000003
  0
LINE
  8
LC-003-002-----0
 62
     2
  6
DASHDOT
 10
-262.277893
 20
472.273712
 11
-185.918976
 21
472.273712
  0
LINE
  8
LC-004-006-----0
 62
     1
  6
CONTINUOUS
 10
-239.208389
 20
483.273712
 11
-235.008392
 21
483.273712
  0
LINE
  8
LC-004-006-----0
 62
     1
  6
CONTINUOUS
 10
-239.208389
 20
463.686829
 11
-235.008392
 21
463.686829
  0
LINE
  8
LC-004-006-----0
 62
     1
  6
CONTINUOUS
 10
-239.708389
 20
464.186829
 11
-239.708389
 21
482.773712
  0
LINE
  8
LC-004-006-----0
 62
     1
  6
CONTINUOUS
 10
-207.708389
 20
464.186829
 11
-207.708389
 21
482.773712
  0
LINE
  8
LC-004-006-----0
 62
     1
  6
CONTINUOUS
 10
-259.223175
 20
478.273712
 11
-239.708389
 21
478.273712
  0
LINE
  8
LC-004-006-----0
 62
     1
  6
CONTINUOUS
 10
-259.452881
 20
466.273712
 11
-239.708389
 21
466.273712
  0
LINE
  8
LC-007-004-----0
 62
     2
  6
CONTINUOUS
 10
-259.452881
 20
466.273712
 11
-258.454010
 21
469.169495
  0
LINE
  8
LC-007-004-----0
 62
     2
  6
CONTINUOUS
 10
-258.454010
 20
469.169495
 11
-259.966370
 21
475.783142
  0
LINE
  8
LC-007-004-----0
 62
     2
  6
CONTINUOUS
 10
-259.966370
 20
475.783142
 11
-259.223175
 21
478.273712
  0
LINE
  8
LC-007-004-----0
 62
     2
  6
CONTINUOUS
 10
-190.570313
 20
466.273712
 11
-189.902679
 21
468.933472
  0
LINE
  8
LC-007-004-----0
 62
     2
  6
CONTINUOUS
 10
-189.902679
 20
468.933472
 11
-191.734695
 21
475.311096
  0
LINE
  8
LC-007-004-----0
 62
     2
  6
CONTINUOUS
 10
-191.734695
 20
475.311096
 11
-191.698914
 21
478.273712
  0
LINE
  8
LC-006-012-----0
 62
     2
  6
DASHED
 10
-239.708389
 20
478.273712
 11
-207.708389
 21
478.273712
  0
LINE
  8
LC-004-006-----0
 62
     1
  6
CONTINUOUS
 10
-207.708389
 20
478.273712
 11
-191.698914
 21
478.273712
  0
LINE
  8
LC-006-012-----0
 62
     2
  6
DASHED
 10
-239.708389
 20
466.273712
 11
-207.708389
 21
466.273712
  0
LINE
  8
LC-004-006-----0
 62
     1
  6
CONTINUOUS
 10
-207.708389
 20
466.273712
 11
-190.570313
 21
466.273712
  0
LINE
  8
LC-004-006-----0
 62
     1
  6
CONTINUOUS
 10
-233.708389
 20
463.686829
 11
-213.708389
 21
463.686829
  0
LINE
  8
LC-004-006-----0
 62
     1
  6
CONTINUOUS
 10
-213.708389
 20
463.686829
 11
-213.708389
 21
483.273712
  0
LINE
  8
LC-004-006-----0
 62
     1
  6
CONTINUOUS
 10
-233.708389
 20
463.686829
 11
-233.708389
 21
483.273712
  0
LINE
  8
LC-004-006-----0
 62
     1
  6
CONTINUOUS
 10
-212.408386
 20
463.686829
 11
-212.408386
 21
483.273712
  0
LINE
  8
LC-004-006-----0
 62
     1
  6
CONTINUOUS
 10
-235.008392
 20
463.686829
 11
-235.008392
 21
483.273712
  0
LINE
  8
LC-004-006-----0
 62
     1
  6
CONTINUOUS
 10
-212.408386
 20
463.686829
 11
-208.208389
 21
463.686829
  0
LINE
  8
LC-004-006-----0
 62
     1
  6
CONTINUOUS
 10
-212.408386
 20
483.273712
 11
-208.208389
 21
483.273712
  0
LINE
  8
LC-004-006-----0
 62
     1
  6
CONTINUOUS
 10
-233.708389
 20
483.273712
 11
-213.708389
 21
483.273712
  0
LINE
  8
LC-004-006-----0
 62
     1
  6
CONTINUOUS
 10
-235.008392
 20
464.186829
 11
-233.708389
 21
464.186829
  0
LINE
  8
LC-004-006-----0
 62
     1
  6
CONTINUOUS
 10
-213.708389
 20
464.186829
 11
-212.408386
 21
464.186829
  0
LINE
  8
LC-004-006-----0
 62
     1
  6
CONTINUOUS
 10
-213.708389
 20
482.773712
 11
-212.408386
 21
482.773712
  0
LINE
  8
LC-004-006-----0
 62
     1
  6
CONTINUOUS
 10
-235.008392
 20
482.773712
 11
-233.708389
 21
482.773712
  0
LINE
  8
LC-003-002-----0
 62
     2
  6
DASHDOT
 10
-220.974930
 20
473.804596
 11
-226.354431
 21
473.804596
  0
LINE
  8
LC-003-002-----0
 62
     2
  6
DASHDOT
 10
-223.708389
 20
476.460480
 11
-223.708389
 21
471.254639
  0
ARC
  8
LC-004-006-----0
 62
     1
  6
CONTINUOUS
 10
-129.379929
 20
472.273712
 40
9.000000
 50
308.999999
 51
231.000007
  0
LINE
  8
LC-003-002-----0
 62
     2
  6
DASHDOT
 10
-134.831375
 20
472.943054
 11
-141.125290
 21
473.715851
  0
LINE
  8
LC-006-012-----0
 62
     2
  6
DASHED
 10
-135.447113
 20
473.774292
 11
-139.213989
 21
474.236816
  0
LINE
  8
LC-006-012-----0
 62
     2
  6
DASHED
 10
-135.629913
 20
472.285461
 11
-139.396790
 21
472.747986
  0
LINE
  8
LC-006-012-----0
 62
     2
  6
DASHED
 10
-139.086029
 20
475.278992
 11
-139.931412
 21
475.382782
  0
LINE
  8
LC-006-012-----0
 62
     2
  6
DASHED
 10
-139.524750
 20
471.705811
 11
-140.370132
 21
471.809601
  0
LINE
  8
LC-006-012-----0
 62
     2
  6
DASHED
 10
-139.086029
 20
475.278992
 11
-139.524750
 21
471.705811
  0
ENDSEC
  0
EOF
