  0
SECTION
  2
HEADER
  9
$LIMMIN
 10
91.030487
 20
239.588730
  9
$LIMMAX
 10
419.993835
 20
331.206787
  9
$EXTMIN
 10
91.030487
 20
239.588730
  9
$EXTMAX
 10
419.993835
 20
331.206787
  0
ENDSEC
  0
SECTION
  2
TABLES
  0
TABLE
  2
LTYPE
 70
     3
  0
LTYPE
  2
CONTINUOUS
 70
    64
  3
Ausgezogene Linie
 72
    65
 73
     0
 40
0.0
  0
LTYPE
  2
DASHED
 70
    64
  3
__ __ __ __ __ __ __ __ __ __ __ __ __ __ __
 72
    65
 73
     2
 40
0.75
 49
0.5
 49
-0.25
  0
LTYPE
  2
DASHDOT
 70
    64
  3
__ . __ . __ . __ . __ . __ . __ . __ . __ . __
 72
    65
 73
     4
 40
1.0
 49
0.5
 49
-0.25
 49
0.0
 49
-0.25
  0
ENDTAB
  0
TABLE
  2
LAYER
 70
     4
  0
LAYER
  2
LC-004-006-----0
 70
    64
 62
     7
  6
CONTINUOUS
  0
LAYER
  2
LC-003-002-----0
 70
    64
 62
     7
  6
CONTINUOUS
  0
LAYER
  2
LC-006-012-----0
 70
    64
 62
     7
  6
CONTINUOUS
  0
LAYER
  2
LC-007-004-----0
 70
    64
 62
     7
  6
CONTINUOUS
  0
ENDTAB
  0
TABLE
  2
STYLE
 70
     1
  0
STYLE
  2
TXT8
 70
    64
 40
0.0
 41
1.0
 50
0.0
 71
     0
 42
3.500000
  3
TXT8
  4

  0
ENDTAB
  0
ENDSEC
  0
SECTION
  2
BLOCKS
  0
ENDSEC
  0
SECTION
  2
ENTITIES
  0
LINE
  8
LC-003-002-----0
 62
     2
  6
DASHDOT
 10
324.024902
 20
283.851837
 11
419.993835
 21
283.851837
  0
LINE
  8
LC-003-002-----0
 62
     2
  6
DASHDOT
 10
370.720551
 20
331.206787
 11
370.720551
 21
239.588730
  0
CIRCLE
  8
LC-004-006-----0
 62
     1
  6
CONTINUOUS
 10
370.720551
 20
283.851837
 40
25.000000
  0
ARC
  8
LC-004-006-----0
 62
     1
  6
CONTINUOUS
 10
370.720551
 20
283.851837
 40
37.500000
 50
294.999999
 51
244.999996
  0
ARC
  8
LC-004-006-----0
 62
     1
  6
CONTINUOUS
 10
370.720551
 20
283.851837
 40
26.000000
 50
294.999999
 51
244.999996
  0
LINE
  8
LC-004-006-----0
 62
     1
  6
CONTINUOUS
 10
381.708618
 20
260.287842
 11
386.568726
 21
249.865295
  0
LINE
  8
LC-004-006-----0
 62
     1
  6
CONTINUOUS
 10
359.732452
 20
260.287842
 11
354.872345
 21
249.865295
  0
LINE
  8
LC-003-002-----0
 62
     2
  6
DASHDOT
 10
91.030487
 20
283.851837
 11
268.644318
 21
283.851837
  0
LINE
  8
LC-004-006-----0
 62
     1
  6
CONTINUOUS
 10
101.570435
 20
308.851837
 11
132.286911
 21
308.851837
  0
LINE
  8
LC-004-006-----0
 62
     1
  6
CONTINUOUS
 10
101.133995
 20
258.851837
 11
132.286911
 21
258.851837
  0
LINE
  8
LC-004-006-----0
 62
     1
  6
CONTINUOUS
 10
132.286911
 20
319.851837
 11
132.286911
 21
251.365295
  0
LINE
  8
LC-004-006-----0
 62
     1
  6
CONTINUOUS
 10
232.286911
 20
319.851837
 11
232.286911
 21
251.365295
  0
LINE
  8
LC-004-006-----0
 62
     1
  6
CONTINUOUS
 10
133.786911
 20
321.351837
 11
143.636902
 21
321.351837
  0
LINE
  8
LC-004-006-----0
 62
     1
  6
CONTINUOUS
 10
146.286911
 20
321.351837
 11
218.286911
 21
321.351837
  0
LINE
  8
LC-004-006-----0
 62
     1
  6
CONTINUOUS
 10
133.786911
 20
249.865295
 11
143.636902
 21
249.865295
  0
LINE
  8
LC-007-004-----0
 62
     2
  6
CONTINUOUS
 10
101.133995
 20
258.851837
 11
103.148621
 21
270.351288
  0
LINE
  8
LC-007-004-----0
 62
     2
  6
CONTINUOUS
 10
103.148621
 20
270.351288
 11
97.788071
 21
290.051727
  0
LINE
  8
LC-007-004-----0
 62
     2
  6
CONTINUOUS
 10
97.788071
 20
290.051727
 11
101.570435
 21
308.851837
  0
LINE
  8
LC-007-004-----0
 62
     2
  6
CONTINUOUS
 10
261.591187
 20
258.851837
 11
259.175415
 21
268.726532
  0
LINE
  8
LC-007-004-----0
 62
     2
  6
CONTINUOUS
 10
259.175415
 20
268.726532
 11
262.090820
 21
292.759705
  0
LINE
  8
LC-007-004-----0
 62
     2
  6
CONTINUOUS
 10
262.090820
 20
292.759705
 11
260.261230
 21
308.851837
  0
LINE
  8
LC-006-012-----0
 62
     2
  6
DASHED
 10
132.286911
 20
308.851837
 11
232.286911
 21
308.851837
  0
LINE
  8
LC-004-006-----0
 62
     1
  6
CONTINUOUS
 10
232.286911
 20
308.851837
 11
260.261230
 21
308.851837
  0
LINE
  8
LC-006-012-----0
 62
     2
  6
DASHED
 10
132.286911
 20
258.851837
 11
232.286911
 21
258.851837
  0
LINE
  8
LC-004-006-----0
 62
     1
  6
CONTINUOUS
 10
232.286911
 20
258.851837
 11
261.591187
 21
258.851837
  0
LINE
  8
LC-004-006-----0
 62
     1
  6
CONTINUOUS
 10
218.286911
 20
249.865295
 11
218.286911
 21
321.351837
  0
LINE
  8
LC-004-006-----0
 62
     1
  6
CONTINUOUS
 10
146.286911
 20
249.865295
 11
146.286911
 21
321.351837
  0
LINE
  8
LC-004-006-----0
 62
     1
  6
CONTINUOUS
 10
220.936905
 20
249.865295
 11
220.936905
 21
321.351837
  0
LINE
  8
LC-004-006-----0
 62
     1
  6
CONTINUOUS
 10
143.636902
 20
249.865295
 11
143.636902
 21
321.351837
  0
LINE
  8
LC-004-006-----0
 62
     1
  6
CONTINUOUS
 10
146.286911
 20
249.865295
 11
218.286911
 21
249.865295
  0
LINE
  8
LC-004-006-----0
 62
     1
  6
CONTINUOUS
 10
220.936905
 20
249.865295
 11
230.786911
 21
249.865295
  0
LINE
  8
LC-004-006-----0
 62
     1
  6
CONTINUOUS
 10
220.936905
 20
321.351837
 11
230.786911
 21
321.351837
  0
LINE
  8
LC-004-006-----0
 62
     1
  6
CONTINUOUS
 10
143.636902
 20
319.851837
 11
146.286911
 21
319.851837
  0
LINE
  8
LC-004-006-----0
 62
     1
  6
CONTINUOUS
 10
218.286911
 20
319.851837
 11
220.936905
 21
319.851837
  0
LINE
  8
LC-004-006-----0
 62
     1
  6
CONTINUOUS
 10
218.286911
 20
251.365295
 11
220.936905
 21
251.365295
  0
LINE
  8
LC-004-006-----0
 62
     1
  6
CONTINUOUS
 10
143.636902
 20
251.365295
 11
146.286911
 21
251.365295
  0
ARC
  8
LC-004-006-----0
 62
     1
  6
CONTINUOUS
 10
133.786911
 20
319.851837
 40
1.500000
 50
90.000003
 51
180.000009
  0
ARC
  8
LC-004-006-----0
 62
     1
  6
CONTINUOUS
 10
133.786911
 20
251.365295
 40
1.500000
 50
180.000009
 51
269.999997
  0
ARC
  8
LC-004-006-----0
 62
     1
  6
CONTINUOUS
 10
230.786911
 20
251.365295
 40
1.500000
 50
269.999997
 51
0.000000
  0
ARC
  8
LC-004-006-----0
 62
     1
  6
CONTINUOUS
 10
230.786911
 20
319.851837
 40
1.500000
 50
0.000000
 51
90.000003
  0
LINE
  8
LC-003-002-----0
 62
     2
  6
DASHDOT
 10
175.866714
 20
286.351837
 11
188.348892
 21
286.351837
  0
LINE
  8
LC-003-002-----0
 62
     2
  6
DASHDOT
 10
182.286911
 20
292.928040
 11
182.286911
 21
278.787018
  0
CIRCLE
  8
LC-006-012-----0
 62
     2
  6
DASHED
 10
182.286911
 20
286.351837
 40
2.300000
  0
ARC
  8
LC-004-006-----0
 62
     1
  6
CONTINUOUS
 10
370.720551
 20
283.851837
 40
33.000000
 50
294.999999
 51
244.999996
  0
LINE
  8
LC-003-002-----0
 62
     2
  6
DASHDOT
 10
328.720917
 20
286.351837
 11
349.383942
 21
286.351837
  0
LINE
  8
LC-006-012-----0
 62
     2
  6
DASHED
 10
333.528992
 20
288.651825
 11
345.167450
 21
288.651825
  0
LINE
  8
LC-006-012-----0
 62
     2
  6
DASHED
 10
333.221069
 20
284.051849
 11
344.721313
 21
284.051849
  0
ENDSEC
  0
EOF
