  0
SECTION
  2
HEADER
  9
$LIMMIN
 10
56.257336
 20
50.007858
  9
$LIMMAX
 10
259.720184
 20
132.744751
  9
$EXTMIN
 10
56.257336
 20
50.007858
  9
$EXTMAX
 10
259.720184
 20
132.744751
  0
ENDSEC
  0
SECTION
  2
TABLES
  0
TABLE
  2
LTYPE
 70
     3
  0
LTYPE
  2
CONTINUOUS
 70
    64
  3
Ausgezogene Linie
 72
    65
 73
     0
 40
0.0
  0
LTYPE
  2
DASHED
 70
    64
  3
__ __ __ __ __ __ __ __ __ __ __ __ __ __ __
 72
    65
 73
     2
 40
0.75
 49
0.5
 49
-0.25
  0
LTYPE
  2
DASHDOT
 70
    64
  3
__ . __ . __ . __ . __ . __ . __ . __ . __ . __
 72
    65
 73
     4
 40
1.0
 49
0.5
 49
-0.25
 49
0.0
 49
-0.25
  0
ENDTAB
  0
TABLE
  2
LAYER
 70
     5
  0
LAYER
  2
LC-INFO-1-1-MM-A2-0
 70
    64
 62
     7
  6
CONTINUOUS
  0
LAYER
  2
LC-003-002-----0
 70
    64
 62
     7
  6
CONTINUOUS
  0
LAYER
  2
LC-005-002-RND-0
 70
    64
 62
     7
  6
CONTINUOUS
  0
LAYER
  2
LC-004-006-----0
 70
    64
 62
     7
  6
CONTINUOUS
  0
LAYER
  2
LC-006-012-----0
 70
    64
 62
     7
  6
CONTINUOUS
  0
ENDTAB
  0
TABLE
  2
STYLE
 70
     1
  0
STYLE
  2
TXT8
 70
    64
 40
0.0
 41
1.0
 50
0.0
 71
     0
 42
3.500000
  3
TXT8
  4

  0
ENDTAB
  0
ENDSEC
  0
SECTION
  2
BLOCKS
  0
ENDSEC
  0
SECTION
  2
ENTITIES
  0
LINE
  8
LC-006-012-----0
 62
     2
  6
CONTINUOUS
 10
117.809990
 20
103.667854
 11
119.846535
 21
105.704399
  0
LINE
  8
LC-006-012-----0
 62
     2
  6
CONTINUOUS
 10
114.981560
 20
103.667854
 11
115.846535
 21
104.532829
  0
LINE
  8
LC-006-012-----0
 62
     2
  6
CONTINUOUS
 10
115.981560
 20
104.667854
 11
117.481560
 21
106.167854
  0
LINE
  8
LC-006-012-----0
 62
     2
  6
CONTINUOUS
 10
112.626732
 20
104.141449
 11
114.653137
 21
106.167854
  0
LINE
  8
LC-006-012-----0
 62
     2
  6
CONTINUOUS
 10
109.324707
 20
103.667854
 11
111.596535
 21
105.939682
  0
LINE
  8
LC-006-012-----0
 62
     2
  6
CONTINUOUS
 10
106.496277
 20
103.667854
 11
108.996277
 21
106.167854
  0
LINE
  8
LC-006-012-----0
 62
     2
  6
CONTINUOUS
 10
103.667854
 20
103.667854
 11
106.167854
 21
106.167854
  0
LINE
  8
LC-006-012-----0
 62
     2
  6
CONTINUOUS
 10
100.839424
 20
103.667854
 11
103.339424
 21
106.167854
  0
LINE
  8
LC-006-012-----0
 62
     2
  6
CONTINUOUS
 10
98.011002
 20
103.667854
 11
100.511002
 21
106.167854
  0
LINE
  8
LC-006-012-----0
 62
     2
  6
CONTINUOUS
 10
95.182571
 20
103.667854
 11
97.682571
 21
106.167854
  0
LINE
  8
LC-006-012-----0
 62
     2
  6
CONTINUOUS
 10
92.354141
 20
103.667854
 11
94.854141
 21
106.167854
  0
LINE
  8
LC-006-012-----0
 62
     2
  6
CONTINUOUS
 10
89.525719
 20
103.667854
 11
92.025719
 21
106.167854
  0
LINE
  8
LC-006-012-----0
 62
     2
  6
CONTINUOUS
 10
86.697289
 20
103.667854
 11
89.197289
 21
106.167854
  0
LINE
  8
LC-006-012-----0
 62
     2
  6
CONTINUOUS
 10
83.868858
 20
103.667854
 11
86.368858
 21
106.167854
  0
LINE
  8
LC-006-012-----0
 62
     2
  6
CONTINUOUS
 10
81.040436
 20
103.667854
 11
82.540436
 21
105.167854
  0
LINE
  8
LC-006-012-----0
 62
     2
  6
CONTINUOUS
 10
83.096535
 20
105.723953
 11
83.540436
 21
106.167854
  0
LINE
  8
LC-006-012-----0
 62
     2
  6
CONTINUOUS
 10
78.846535
 20
104.302383
 11
80.712006
 21
106.167854
  0
LINE
  8
LC-006-012-----0
 62
     2
  6
CONTINUOUS
 10
75.383583
 20
103.667854
 11
77.883583
 21
106.167854
  0
LINE
  8
LC-006-012-----0
 62
     2
  6
CONTINUOUS
 10
74.846535
 20
105.959236
 11
75.055153
 21
106.167854
  0
LINE
  8
LC-006-012-----0
 62
     2
  6
CONTINUOUS
 10
122.346535
 20
126.555054
 11
121.233734
 21
127.667854
  0
LINE
  8
LC-006-012-----0
 62
     2
  6
CONTINUOUS
 10
119.905312
 20
126.167854
 11
118.405312
 21
127.667854
  0
LINE
  8
LC-006-012-----0
 62
     2
  6
CONTINUOUS
 10
117.076881
 20
126.167854
 11
115.576881
 21
127.667854
  0
LINE
  8
LC-006-012-----0
 62
     2
  6
CONTINUOUS
 10
115.546539
 20
124.869766
 11
112.869545
 21
127.546761
  0
LINE
  8
LC-006-012-----0
 62
     2
  6
CONTINUOUS
 10
113.420029
 20
124.167854
 11
112.346535
 21
125.241341
  0
LINE
  8
LC-006-012-----0
 62
     2
  6
CONTINUOUS
 10
122.346535
 20
112.412918
 11
119.591599
 21
115.167854
  0
LINE
  8
LC-006-012-----0
 62
     2
  6
CONTINUOUS
 10
122.263168
 20
109.667854
 11
116.763168
 21
115.167854
  0
LINE
  8
LC-006-012-----0
 62
     2
  6
CONTINUOUS
 10
115.546539
 20
116.384491
 11
114.763168
 21
117.167854
  0
LINE
  8
LC-006-012-----0
 62
     2
  6
CONTINUOUS
 10
119.434746
 20
109.667854
 11
112.346535
 21
116.756058
  0
LINE
  8
LC-006-012-----0
 62
     2
  6
CONTINUOUS
 10
116.606316
 20
109.667854
 11
112.346535
 21
113.927635
  0
LINE
  8
LC-006-012-----0
 62
     2
  6
CONTINUOUS
 10
113.777893
 20
109.667854
 11
110.277893
 21
113.167854
  0
LINE
  8
LC-006-012-----0
 62
     2
  6
CONTINUOUS
 10
110.949463
 20
109.667854
 11
107.449463
 21
113.167854
  0
LINE
  8
LC-006-012-----0
 62
     2
  6
CONTINUOUS
 10
108.121033
 20
109.667854
 11
104.621033
 21
113.167854
  0
LINE
  8
LC-006-012-----0
 62
     2
  6
CONTINUOUS
 10
105.292610
 20
109.667854
 11
101.792610
 21
113.167854
  0
LINE
  8
LC-006-012-----0
 62
     2
  6
CONTINUOUS
 10
102.464180
 20
109.667854
 11
98.964180
 21
113.167854
  0
LINE
  8
LC-006-012-----0
 62
     2
  6
CONTINUOUS
 10
99.635757
 20
109.667854
 11
96.135757
 21
113.167854
  0
LINE
  8
LC-006-012-----0
 62
     2
  6
CONTINUOUS
 10
96.807327
 20
109.667854
 11
93.307327
 21
113.167854
  0
LINE
  8
LC-006-012-----0
 62
     2
  6
CONTINUOUS
 10
93.978905
 20
109.667854
 11
90.478905
 21
113.167854
  0
LINE
  8
LC-006-012-----0
 62
     2
  6
CONTINUOUS
 10
91.150475
 20
109.667854
 11
87.650475
 21
113.167854
  0
LINE
  8
LC-006-012-----0
 62
     2
  6
CONTINUOUS
 10
88.322044
 20
109.667854
 11
84.822044
 21
113.167854
  0
LINE
  8
LC-006-012-----0
 62
     2
  6
CONTINUOUS
 10
85.493622
 20
109.667854
 11
81.993622
 21
113.167854
  0
LINE
  8
LC-006-012-----0
 62
     2
  6
CONTINUOUS
 10
82.665192
 20
109.667854
 11
79.165192
 21
113.167854
  0
LINE
  8
LC-006-012-----0
 62
     2
  6
CONTINUOUS
 10
79.836761
 20
109.667854
 11
76.336761
 21
113.167854
  0
LINE
  8
LC-006-012-----0
 62
     2
  6
CONTINUOUS
 10
77.008339
 20
109.667854
 11
73.508339
 21
113.167854
  0
LINE
  8
LC-006-012-----0
 62
     2
  6
CONTINUOUS
 10
73.846535
 20
110.001228
 11
72.346535
 21
111.501228
  0
LINE
  8
LC-005-002-RND-0
 62
     2
  6
DASHDOT
 10
56.257336
 20
90.667854
 11
142.243271
 21
90.667854
  0
LINE
  8
LC-003-002-----0
 62
     1
  6
CONTINUOUS
 10
73.346535
 20
113.167854
 11
111.346535
 21
113.167854
  0
LINE
  8
LC-003-002-----0
 62
     1
  6
CONTINUOUS
 10
73.346535
 20
68.167854
 11
111.346535
 21
68.167854
  0
LINE
  8
LC-003-002-----0
 62
     1
  6
CONTINUOUS
 10
113.346535
 20
127.667854
 11
121.346535
 21
127.667854
  0
LINE
  8
LC-003-002-----0
 62
     1
  6
CONTINUOUS
 10
113.346535
 20
53.667850
 11
121.346535
 21
53.667850
  0
LINE
  8
LC-003-002-----0
 62
     1
  6
CONTINUOUS
 10
72.346535
 20
112.167854
 11
72.346535
 21
100.667854
  0
LINE
  8
LC-003-002-----0
 62
     1
  6
CONTINUOUS
 10
122.346535
 20
126.667854
 11
122.346535
 21
100.667854
  0
LINE
  8
LC-003-002-----0
 62
     1
  6
CONTINUOUS
 10
112.346535
 20
126.667854
 11
112.346535
 21
112.167854
  0
LINE
  8
LC-003-002-----0
 62
     1
  6
CONTINUOUS
 10
111.346535
 20
113.167854
 11
111.346535
 21
112.167854
  0
LINE
  8
LC-003-002-----0
 62
     1
  6
CONTINUOUS
 10
111.346535
 20
112.167854
 11
112.346535
 21
112.167854
  0
LINE
  8
LC-003-002-----0
 62
     1
  6
CONTINUOUS
 10
111.346535
 20
69.167854
 11
112.346535
 21
69.167854
  0
ARC
  8
LC-003-002-----0
 62
     1
  6
CONTINUOUS
 10
73.346535
 20
69.167854
 40
1.000000
 50
180.000009
 51
269.999997
  0
ARC
  8
LC-003-002-----0
 62
     1
  6
CONTINUOUS
 10
73.346535
 20
112.167854
 40
1.000000
 50
90.000003
 51
180.000009
  0
ARC
  8
LC-003-002-----0
 62
     1
  6
CONTINUOUS
 10
113.346535
 20
126.667854
 40
1.000000
 50
90.000003
 51
180.000009
  0
ARC
  8
LC-003-002-----0
 62
     1
  6
CONTINUOUS
 10
121.346535
 20
126.667854
 40
1.000000
 50
0.000000
 51
90.000003
  0
ARC
  8
LC-003-002-----0
 62
     1
  6
CONTINUOUS
 10
113.346535
 20
54.667850
 40
1.000000
 50
180.000009
 51
269.999997
  0
ARC
  8
LC-003-002-----0
 62
     1
  6
CONTINUOUS
 10
121.346535
 20
54.667850
 40
1.000000
 50
269.999997
 51
0.000000
  0
LINE
  8
LC-003-002-----0
 62
     1
  6
CONTINUOUS
 10
60.011551
 20
100.667854
 11
72.346535
 21
100.667854
  0
LINE
  8
LC-003-002-----0
 62
     1
  6
CONTINUOUS
 10
58.768059
 20
80.667854
 11
72.346535
 21
80.667854
  0
LINE
  8
LC-006-012-----0
 62
     2
  6
CONTINUOUS
 10
58.768059
 20
80.667854
 11
59.639214
 21
84.850815
  0
LINE
  8
LC-006-012-----0
 62
     2
  6
CONTINUOUS
 10
59.639214
 20
84.850815
 11
59.427338
 21
96.361633
  0
LINE
  8
LC-006-012-----0
 62
     2
  6
CONTINUOUS
 10
59.427338
 20
96.361633
 11
60.011551
 21
100.667854
  0
LINE
  8
LC-006-012-----0
 62
     2
  6
CONTINUOUS
 10
139.494019
 20
80.667854
 11
140.026718
 21
84.850815
  0
LINE
  8
LC-006-012-----0
 62
     2
  6
CONTINUOUS
 10
140.026718
 20
84.850815
 11
138.967331
 21
94.168320
  0
LINE
  8
LC-006-012-----0
 62
     2
  6
CONTINUOUS
 10
138.967331
 20
94.168320
 11
139.265427
 21
100.667854
  0
LINE
  8
LC-003-002-----0
 62
     1
  6
CONTINUOUS
 10
72.346535
 20
100.667854
 11
122.346535
 21
100.667854
  0
LINE
  8
LC-003-002-----0
 62
     1
  6
CONTINUOUS
 10
122.346535
 20
100.667854
 11
139.265427
 21
100.667854
  0
LINE
  8
LC-004-006-----0
 62
     2
  6
DASHED
 10
72.346535
 20
80.667854
 11
122.346535
 21
80.667854
  0
LINE
  8
LC-003-002-----0
 62
     1
  6
CONTINUOUS
 10
122.346535
 20
80.667854
 11
139.494019
 21
80.667854
  0
LINE
  8
LC-005-002-RND-0
 62
     2
  6
DASHDOT
 10
177.144760
 20
90.667854
 11
259.720184
 21
90.667854
  0
LINE
  8
LC-005-002-RND-0
 62
     2
  6
DASHDOT
 10
218.080811
 20
132.744751
 11
218.080811
 21
50.007858
  0
CIRCLE
  8
LC-003-002-----0
 62
     1
  6
CONTINUOUS
 10
218.080811
 20
90.667854
 40
10.000000
  0
ARC
  8
LC-003-002-----0
 62
     1
  6
CONTINUOUS
 10
218.080811
 20
90.667854
 40
37.000000
 50
263.391667
 51
276.608335
  0
CIRCLE
  8
LC-003-002-----0
 62
     1
  6
CONTINUOUS
 10
218.080811
 20
90.667854
 40
22.500000
  0
CIRCLE
  8
LC-005-002-RND-0
 62
     2
  6
DASHDOT
 10
218.080811
 20
90.667854
 40
30.000000
  0
CIRCLE
  8
LC-004-006-----0
 62
     2
  6
DASHED
 10
218.080811
 20
120.667854
 40
5.500000
  0
CIRCLE
  8
LC-003-002-----0
 62
     1
  6
CONTINUOUS
 10
218.080811
 20
120.667854
 40
3.500000
  0
CIRCLE
  8
LC-004-006-----0
 62
     2
  6
DASHED
 10
188.080811
 20
90.667854
 40
5.500000
  0
CIRCLE
  8
LC-003-002-----0
 62
     1
  6
CONTINUOUS
 10
188.080811
 20
90.667854
 40
3.500000
  0
CIRCLE
  8
LC-004-006-----0
 62
     2
  6
DASHED
 10
218.080811
 20
60.667850
 40
5.500000
  0
CIRCLE
  8
LC-003-002-----0
 62
     1
  6
CONTINUOUS
 10
218.080811
 20
60.667850
 40
3.500000
  0
CIRCLE
  8
LC-003-002-----0
 62
     1
  6
CONTINUOUS
 10
248.080811
 20
90.667854
 40
3.500000
  0
CIRCLE
  8
LC-004-006-----0
 62
     2
  6
DASHED
 10
248.080811
 20
90.667854
 40
5.500000
  0
LINE
  8
LC-003-002-----0
 62
     1
  6
CONTINUOUS
 10
254.834991
 20
94.925873
 11
222.338837
 21
127.422028
  0
LINE
  8
LC-003-002-----0
 62
     1
  6
CONTINUOUS
 10
222.338837
 20
53.913677
 11
254.834991
 21
86.409828
  0
LINE
  8
LC-003-002-----0
 62
     1
  6
CONTINUOUS
 10
213.822784
 20
127.422028
 11
181.326645
 21
94.925873
  0
LINE
  8
LC-003-002-----0
 62
     1
  6
CONTINUOUS
 10
181.326645
 20
86.409828
 11
213.822784
 21
53.913681
  0
ARC
  8
LC-003-002-----0
 62
     1
  6
CONTINUOUS
 10
218.080811
 20
90.667854
 40
37.000000
 50
173.391660
 51
186.608340
  0
ARC
  8
LC-003-002-----0
 62
     1
  6
CONTINUOUS
 10
218.080811
 20
90.667854
 40
37.000000
 50
83.391665
 51
96.608333
  0
ARC
  8
LC-003-002-----0
 62
     1
  6
CONTINUOUS
 10
218.080811
 20
90.667854
 40
37.000000
 50
353.391667
 51
6.608333
  0
LINE
  8
LC-005-002-RND-0
 62
     2
  6
DASHDOT
 10
125.817543
 20
120.667854
 11
108.990257
 21
120.667854
  0
LINE
  8
LC-003-002-----0
 62
     1
  6
CONTINUOUS
 10
122.346535
 20
126.167854
 11
115.546539
 21
126.167854
  0
LINE
  8
LC-003-002-----0
 62
     1
  6
CONTINUOUS
 10
115.546539
 20
124.167854
 11
112.346535
 21
124.167854
  0
LINE
  8
LC-003-002-----0
 62
     1
  6
CONTINUOUS
 10
115.546539
 20
126.167854
 11
115.546539
 21
115.167854
  0
LINE
  8
LC-003-002-----0
 62
     1
  6
CONTINUOUS
 10
115.546539
 20
117.167854
 11
112.346535
 21
117.167854
  0
LINE
  8
LC-003-002-----0
 62
     1
  6
CONTINUOUS
 10
122.346535
 20
115.167854
 11
115.546539
 21
115.167854
  0
LINE
  8
LC-005-002-RND-0
 62
     2
  6
DASHDOT
 10
125.817543
 20
60.667850
 11
108.990257
 21
60.667850
  0
LINE
  8
LC-004-006-----0
 62
     2
  6
DASHED
 10
115.546539
 20
57.167850
 11
112.346535
 21
57.167850
  0
LINE
  8
LC-004-006-----0
 62
     2
  6
DASHED
 10
115.546539
 20
55.167850
 11
115.546539
 21
66.167854
  0
LINE
  8
LC-004-006-----0
 62
     2
  6
DASHED
 10
115.546539
 20
64.167854
 11
112.346535
 21
64.167854
  0
LINE
  8
LC-004-006-----0
 62
     2
  6
DASHED
 10
122.346535
 20
66.167854
 11
115.546539
 21
66.167854
  0
LINE
  8
LC-004-006-----0
 62
     2
  6
DASHED
 10
122.346535
 20
55.167850
 11
115.546539
 21
55.167850
  0
LINE
  8
LC-003-002-----0
 62
     1
  6
CONTINUOUS
 10
72.346535
 20
90.667854
 11
72.346535
 21
69.167854
  0
CIRCLE
  8
LC-003-002-----0
 62
     1
  6
CONTINUOUS
 10
94.346535
 20
102.167854
 40
1.500000
  0
LINE
  8
LC-003-002-----0
 62
     1
  6
CONTINUOUS
 10
74.846535
 20
103.667854
 11
77.846535
 21
103.667854
  0
CIRCLE
  8
LC-003-002-----0
 62
     1
  6
CONTINUOUS
 10
97.346535
 20
102.167854
 40
1.500000
  0
CIRCLE
  8
LC-003-002-----0
 62
     1
  6
CONTINUOUS
 10
218.080811
 20
90.667854
 40
20.000000
  0
CIRCLE
  8
LC-003-002-----0
 62
     1
  6
CONTINUOUS
 10
218.080811
 20
90.667854
 40
18.000000
  0
CIRCLE
  8
LC-003-002-----0
 62
     1
  6
CONTINUOUS
 10
218.080811
 20
90.667854
 40
16.000000
  0
LINE
  8
LC-003-002-----0
 62
     1
  6
CONTINUOUS
 10
111.346535
 20
90.667854
 11
111.346535
 21
68.167854
  0
CIRCLE
  8
LC-003-002-----0
 62
     1
  6
CONTINUOUS
 10
100.346535
 20
102.167854
 40
1.500000
  0
LINE
  8
LC-003-002-----0
 62
     1
  6
CONTINUOUS
 10
122.346535
 20
90.667854
 11
122.346535
 21
54.667847
  0
LINE
  8
LC-003-002-----0
 62
     1
  6
CONTINUOUS
 10
73.846535
 20
110.667854
 11
73.846535
 21
100.667854
  0
LINE
  8
LC-003-002-----0
 62
     1
  6
CONTINUOUS
 10
112.346535
 20
90.667854
 11
112.346535
 21
54.667847
  0
CIRCLE
  8
LC-003-002-----0
 62
     1
  6
CONTINUOUS
 10
103.346535
 20
102.167854
 40
1.500000
  0
CIRCLE
  8
LC-003-002-----0
 62
     1
  6
CONTINUOUS
 10
106.346535
 20
102.167854
 40
1.500000
  0
CIRCLE
  8
LC-003-002-----0
 62
     1
  6
CONTINUOUS
 10
109.346535
 20
102.167854
 40
1.500000
  0
CIRCLE
  8
LC-003-002-----0
 62
     1
  6
CONTINUOUS
 10
112.346535
 20
102.667854
 40
1.500000
  0
LINE
  8
LC-003-002-----0
 62
     1
  6
CONTINUOUS
 10
113.464569
 20
103.667854
 11
115.846535
 21
103.667854
  0
CIRCLE
  8
LC-003-002-----0
 62
     1
  6
CONTINUOUS
 10
91.346535
 20
102.167854
 40
1.500000
  0
CIRCLE
  8
LC-003-002-----0
 62
     1
  6
CONTINUOUS
 10
88.346535
 20
102.167854
 40
1.500000
  0
CIRCLE
  8
LC-003-002-----0
 62
     1
  6
CONTINUOUS
 10
85.346535
 20
102.167854
 40
1.500000
  0
CIRCLE
  8
LC-003-002-----0
 62
     1
  6
CONTINUOUS
 10
82.346535
 20
102.667854
 40
1.500000
  0
LINE
  8
LC-003-002-----0
 62
     1
  6
CONTINUOUS
 10
83.464569
 20
103.667854
 11
111.228500
 21
103.667854
  0
LINE
  8
LC-003-002-----0
 62
     1
  6
CONTINUOUS
 10
74.846535
 20
106.167854
 11
81.846535
 21
106.167854
  0
CIRCLE
  8
LC-003-002-----0
 62
     1
  6
CONTINUOUS
 10
92.346535
 20
107.917854
 40
1.750000
  0
LINE
  8
LC-003-002-----0
 62
     1
  6
CONTINUOUS
 10
72.346535
 20
109.667854
 11
73.846535
 21
109.667854
  0
CIRCLE
  8
LC-003-002-----0
 62
     1
  6
CONTINUOUS
 10
97.346535
 20
107.917854
 40
1.750000
  0
CIRCLE
  8
LC-003-002-----0
 62
     1
  6
CONTINUOUS
 10
102.346535
 20
107.917854
 40
1.750000
  0
CIRCLE
  8
LC-003-002-----0
 62
     1
  6
CONTINUOUS
 10
107.346535
 20
107.917854
 40
1.750000
  0
CIRCLE
  8
LC-003-002-----0
 62
     1
  6
CONTINUOUS
 10
116.346535
 20
107.917854
 40
1.750000
  0
CIRCLE
  8
LC-003-002-----0
 62
     1
  6
CONTINUOUS
 10
87.346535
 20
107.917854
 40
1.750000
  0
CIRCLE
  8
LC-003-002-----0
 62
     1
  6
CONTINUOUS
 10
78.346535
 20
107.917854
 40
1.750000
  0
LINE
  8
LC-003-002-----0
 62
     1
  6
CONTINUOUS
 10
120.846535
 20
110.667854
 11
120.846535
 21
100.667854
  0
LINE
  8
LC-003-002-----0
 62
     1
  6
CONTINUOUS
 10
119.846535
 20
110.667854
 11
119.846535
 21
100.667854
  0
LINE
  8
LC-003-002-----0
 62
     1
  6
CONTINUOUS
 10
119.846535
 20
110.667854
 11
120.846535
 21
110.667854
  0
LINE
  8
LC-003-002-----0
 62
     1
  6
CONTINUOUS
 10
120.846535
 20
109.667854
 11
122.346535
 21
109.667854
  0
LINE
  8
LC-003-002-----0
 62
     1
  6
CONTINUOUS
 10
74.846535
 20
110.667854
 11
74.846535
 21
100.667854
  0
LINE
  8
LC-003-002-----0
 62
     1
  6
CONTINUOUS
 10
74.846535
 20
110.667854
 11
73.846535
 21
110.667854
  0
LINE
  8
LC-003-002-----0
 62
     1
  6
CONTINUOUS
 10
74.846535
 20
109.667854
 11
119.846535
 21
109.667854
  0
LINE
  8
LC-003-002-----0
 62
     1
  6
CONTINUOUS
 10
112.846535
 20
109.667854
 11
112.846535
 21
105.167854
  0
LINE
  8
LC-003-002-----0
 62
     1
  6
CONTINUOUS
 10
111.596535
 20
109.667854
 11
111.596535
 21
105.167854
  0
LINE
  8
LC-003-002-----0
 62
     1
  6
CONTINUOUS
 10
111.596535
 20
105.167854
 11
112.846535
 21
105.167854
  0
LINE
  8
LC-003-002-----0
 62
     1
  6
CONTINUOUS
 10
112.846535
 20
106.167854
 11
119.846535
 21
106.167854
  0
LINE
  8
LC-003-002-----0
 62
     1
  6
CONTINUOUS
 10
81.846535
 20
109.667854
 11
81.846535
 21
105.167854
  0
LINE
  8
LC-003-002-----0
 62
     1
  6
CONTINUOUS
 10
83.096535
 20
109.667854
 11
83.096535
 21
105.167854
  0
LINE
  8
LC-003-002-----0
 62
     1
  6
CONTINUOUS
 10
83.096535
 20
105.167854
 11
81.846535
 21
105.167854
  0
LINE
  8
LC-003-002-----0
 62
     1
  6
CONTINUOUS
 10
83.096535
 20
106.167854
 11
111.596535
 21
106.167854
  0
LINE
  8
LC-003-002-----0
 62
     1
  6
CONTINUOUS
 10
115.846535
 20
104.667854
 11
115.846535
 21
100.667854
  0
LINE
  8
LC-003-002-----0
 62
     1
  6
CONTINUOUS
 10
116.846535
 20
104.667854
 11
116.846535
 21
100.667854
  0
LINE
  8
LC-003-002-----0
 62
     1
  6
CONTINUOUS
 10
115.846535
 20
104.667854
 11
116.846535
 21
104.667854
  0
LINE
  8
LC-003-002-----0
 62
     1
  6
CONTINUOUS
 10
116.846535
 20
103.667854
 11
119.846535
 21
103.667854
  0
LINE
  8
LC-003-002-----0
 62
     1
  6
CONTINUOUS
 10
78.846535
 20
104.667854
 11
78.846535
 21
100.667854
  0
LINE
  8
LC-003-002-----0
 62
     1
  6
CONTINUOUS
 10
78.846535
 20
104.667854
 11
77.846535
 21
104.667854
  0
LINE
  8
LC-003-002-----0
 62
     1
  6
CONTINUOUS
 10
77.846535
 20
104.667854
 11
77.846535
 21
100.667854
  0
LINE
  8
LC-003-002-----0
 62
     1
  6
CONTINUOUS
 10
78.846535
 20
103.667854
 11
81.228500
 21
103.667854
  0
ENDSEC
  0
EOF
