  0
SECTION
  2
HEADER
  9
$LIMMIN
 10
318.698181
 20
123.643959
  9
$LIMMAX
 10
564.278015
 20
229.398041
  9
$EXTMIN
 10
318.698181
 20
123.643959
  9
$EXTMAX
 10
564.278015
 20
229.398041
  0
ENDSEC
  0
SECTION
  2
TABLES
  0
TABLE
  2
LTYPE
 70
     3
  0
LTYPE
  2
CONTINUOUS
 70
    64
  3
Ausgezogene Linie
 72
    65
 73
     0
 40
0.0
  0
LTYPE
  2
DASHED
 70
    64
  3
__ __ __ __ __ __ __ __ __ __ __ __ __ __ __
 72
    65
 73
     2
 40
0.75
 49
0.5
 49
-0.25
  0
LTYPE
  2
DASHDOT
 70
    64
  3
__ . __ . __ . __ . __ . __ . __ . __ . __ . __
 72
    65
 73
     4
 40
1.0
 49
0.5
 49
-0.25
 49
0.0
 49
-0.25
  0
ENDTAB
  0
TABLE
  2
LAYER
 70
     5
  0
LAYER
  2
LC-INFO-1-1-MM-A2-0
 70
    64
 62
     7
  6
CONTINUOUS
  0
LAYER
  2
LC-003-002-----0
 70
    64
 62
     7
  6
CONTINUOUS
  0
LAYER
  2
LC-005-002-RND-0
 70
    64
 62
     7
  6
CONTINUOUS
  0
LAYER
  2
LC-004-006-----0
 70
    64
 62
     7
  6
CONTINUOUS
  0
LAYER
  2
LC-006-012-----0
 70
    64
 62
     7
  6
CONTINUOUS
  0
ENDTAB
  0
TABLE
  2
STYLE
 70
     1
  0
STYLE
  2
TXT8
 70
    64
 40
0.0
 41
1.0
 50
0.0
 71
     0
 42
3.500000
  3
TXT8
  4

  0
ENDTAB
  0
ENDSEC
  0
SECTION
  2
BLOCKS
  0
ENDSEC
  0
SECTION
  2
ENTITIES
  0
LINE
  8
LC-006-012-----0
 62
     2
  6
CONTINUOUS
 10
412.520813
 20
195.591003
 11
410.206848
 21
197.904999
  0
LINE
  8
LC-006-012-----0
 62
     2
  6
CONTINUOUS
 10
409.671295
 20
194.904999
 11
406.671295
 21
197.904999
  0
LINE
  8
LC-006-012-----0
 62
     2
  6
CONTINUOUS
 10
406.135773
 20
194.904999
 11
403.135773
 21
197.904999
  0
LINE
  8
LC-006-012-----0
 62
     2
  6
CONTINUOUS
 10
402.600250
 20
194.904999
 11
400.600250
 21
196.904999
  0
LINE
  8
LC-006-012-----0
 62
     2
  6
CONTINUOUS
 10
398.679962
 20
195.289734
 11
396.064697
 21
197.904999
  0
LINE
  8
LC-006-012-----0
 62
     2
  6
CONTINUOUS
 10
395.529175
 20
194.904999
 11
392.529175
 21
197.904999
  0
LINE
  8
LC-006-012-----0
 62
     2
  6
CONTINUOUS
 10
391.993622
 20
194.904999
 11
388.993622
 21
197.904999
  0
LINE
  8
LC-006-012-----0
 62
     2
  6
CONTINUOUS
 10
388.458099
 20
194.904999
 11
385.458099
 21
197.904999
  0
LINE
  8
LC-006-012-----0
 62
     2
  6
CONTINUOUS
 10
384.922577
 20
194.904999
 11
381.922577
 21
197.904999
  0
LINE
  8
LC-006-012-----0
 62
     2
  6
CONTINUOUS
 10
381.387024
 20
194.904999
 11
378.387024
 21
197.904999
  0
LINE
  8
LC-006-012-----0
 62
     2
  6
CONTINUOUS
 10
377.851501
 20
194.904999
 11
374.851501
 21
197.904999
  0
LINE
  8
LC-006-012-----0
 62
     2
  6
CONTINUOUS
 10
374.315979
 20
194.904999
 11
371.315979
 21
197.904999
  0
LINE
  8
LC-006-012-----0
 62
     2
  6
CONTINUOUS
 10
370.780426
 20
194.904999
 11
367.780426
 21
197.904999
  0
LINE
  8
LC-006-012-----0
 62
     2
  6
CONTINUOUS
 10
367.244904
 20
194.904999
 11
364.244904
 21
197.904999
  0
LINE
  8
LC-006-012-----0
 62
     2
  6
CONTINUOUS
 10
363.709351
 20
194.904999
 11
360.709351
 21
197.904999
  0
LINE
  8
LC-006-012-----0
 62
     2
  6
CONTINUOUS
 10
360.173828
 20
194.904999
 11
357.520813
 21
197.557999
  0
LINE
  8
LC-006-012-----0
 62
     2
  6
CONTINUOUS
 10
356.424377
 20
195.118912
 11
353.638306
 21
197.904999
  0
LINE
  8
LC-006-012-----0
 62
     2
  6
CONTINUOUS
 10
353.102753
 20
194.904999
 11
350.102753
 21
197.904999
  0
LINE
  8
LC-006-012-----0
 62
     2
  6
CONTINUOUS
 10
349.520813
 20
194.951401
 11
346.567230
 21
197.904999
  0
LINE
  8
LC-006-012-----0
 62
     2
  6
CONTINUOUS
 10
346.031708
 20
194.904999
 11
344.520813
 21
196.415863
  0
LINE
  8
LC-006-012-----0
 62
     2
  6
CONTINUOUS
 10
413.823822
 20
222.904999
 11
414.978394
 21
224.059570
  0
LINE
  8
LC-006-012-----0
 62
     2
  6
CONTINUOUS
 10
410.288300
 20
222.904999
 11
411.788300
 21
224.404999
  0
LINE
  8
LC-006-012-----0
 62
     2
  6
CONTINUOUS
 10
403.752747
 20
219.904999
 11
406.520813
 21
222.673065
  0
LINE
  8
LC-006-012-----0
 62
     2
  6
CONTINUOUS
 10
406.752747
 20
222.904999
 11
408.252747
 21
224.404999
  0
LINE
  8
LC-006-012-----0
 62
     2
  6
CONTINUOUS
 10
402.520813
 20
222.208603
 11
404.717224
 21
224.404999
  0
LINE
  8
LC-006-012-----0
 62
     2
  6
CONTINUOUS
 10
414.037018
 20
201.904999
 11
415.520813
 21
203.388794
  0
LINE
  8
LC-006-012-----0
 62
     2
  6
CONTINUOUS
 10
410.501495
 20
201.904999
 11
415.520813
 21
206.924332
  0
LINE
  8
LC-006-012-----0
 62
     2
  6
CONTINUOUS
 10
406.965973
 20
201.904999
 11
412.965973
 21
207.904999
  0
LINE
  8
LC-006-012-----0
 62
     2
  6
CONTINUOUS
 10
403.430420
 20
201.904999
 11
409.430420
 21
207.904999
  0
LINE
  8
LC-006-012-----0
 62
     2
  6
CONTINUOUS
 10
399.894897
 20
201.904999
 11
406.520813
 21
208.530930
  0
LINE
  8
LC-006-012-----0
 62
     2
  6
CONTINUOUS
 10
396.359344
 20
201.904999
 11
400.859344
 21
206.404999
  0
LINE
  8
LC-006-012-----0
 62
     2
  6
CONTINUOUS
 10
402.520813
 20
208.066467
 11
405.359344
 21
210.904999
  0
LINE
  8
LC-006-012-----0
 62
     2
  6
CONTINUOUS
 10
392.823822
 20
201.904999
 11
397.323822
 21
206.404999
  0
LINE
  8
LC-006-012-----0
 62
     2
  6
CONTINUOUS
 10
389.288300
 20
201.904999
 11
393.788300
 21
206.404999
  0
LINE
  8
LC-006-012-----0
 62
     2
  6
CONTINUOUS
 10
385.752747
 20
201.904999
 11
390.252747
 21
206.404999
  0
LINE
  8
LC-006-012-----0
 62
     2
  6
CONTINUOUS
 10
382.217224
 20
201.904999
 11
386.717224
 21
206.404999
  0
LINE
  8
LC-006-012-----0
 62
     2
  6
CONTINUOUS
 10
378.681702
 20
201.904999
 11
383.181702
 21
206.404999
  0
LINE
  8
LC-006-012-----0
 62
     2
  6
CONTINUOUS
 10
375.146149
 20
201.904999
 11
379.646149
 21
206.404999
  0
LINE
  8
LC-006-012-----0
 62
     2
  6
CONTINUOUS
 10
371.610626
 20
201.904999
 11
376.110626
 21
206.404999
  0
LINE
  8
LC-006-012-----0
 62
     2
  6
CONTINUOUS
 10
368.075073
 20
201.904999
 11
372.575073
 21
206.404999
  0
LINE
  8
LC-006-012-----0
 62
     2
  6
CONTINUOUS
 10
364.539551
 20
201.904999
 11
369.039551
 21
206.404999
  0
LINE
  8
LC-006-012-----0
 62
     2
  6
CONTINUOUS
 10
361.004028
 20
201.904999
 11
365.504028
 21
206.404999
  0
LINE
  8
LC-006-012-----0
 62
     2
  6
CONTINUOUS
 10
357.468475
 20
201.904999
 11
361.968475
 21
206.404999
  0
LINE
  8
LC-006-012-----0
 62
     2
  6
CONTINUOUS
 10
353.932953
 20
201.904999
 11
358.432953
 21
206.404999
  0
LINE
  8
LC-006-012-----0
 62
     2
  6
CONTINUOUS
 10
350.397430
 20
201.904999
 11
354.897430
 21
206.404999
  0
LINE
  8
LC-006-012-----0
 62
     2
  6
CONTINUOUS
 10
346.861877
 20
201.904999
 11
351.361877
 21
206.404999
  0
LINE
  8
LC-006-012-----0
 62
     2
  6
CONTINUOUS
 10
343.326355
 20
201.904999
 11
343.520813
 21
202.099472
  0
LINE
  8
LC-006-012-----0
 62
     2
  6
CONTINUOUS
 10
344.326355
 20
202.904999
 11
347.826355
 21
206.404999
  0
LINE
  8
LC-006-012-----0
 62
     2
  6
CONTINUOUS
 10
341.520813
 20
203.635010
 11
344.290802
 21
206.404999
  0
LINE
  8
LC-005-002-RND-0
 62
     2
  6
DASHDOT
 10
318.698181
 20
176.404999
 11
437.589661
 21
176.404999
  0
LINE
  8
LC-003-002-----0
 62
     1
  6
CONTINUOUS
 10
343.020813
 20
206.404999
 11
400.940826
 21
206.404999
  0
LINE
  8
LC-003-002-----0
 62
     1
  6
CONTINUOUS
 10
343.020813
 20
146.404999
 11
400.940826
 21
146.404999
  0
LINE
  8
LC-003-002-----0
 62
     1
  6
CONTINUOUS
 10
404.020813
 20
224.404999
 11
414.020813
 21
224.404999
  0
LINE
  8
LC-003-002-----0
 62
     1
  6
CONTINUOUS
 10
404.020813
 20
128.404999
 11
414.020813
 21
128.404999
  0
LINE
  8
LC-003-002-----0
 62
     1
  6
CONTINUOUS
 10
341.520813
 20
204.904999
 11
341.520813
 21
191.404999
  0
LINE
  8
LC-003-002-----0
 62
     1
  6
CONTINUOUS
 10
415.520813
 20
222.904999
 11
415.520813
 21
191.404999
  0
LINE
  8
LC-003-002-----0
 62
     1
  6
CONTINUOUS
 10
402.520813
 20
222.904999
 11
402.520813
 21
204.904999
  0
ARC
  8
LC-003-002-----0
 62
     1
  6
CONTINUOUS
 10
343.020813
 20
204.904999
 40
1.500000
 50
90.000003
 51
180.000009
  0
ARC
  8
LC-003-002-----0
 62
     1
  6
CONTINUOUS
 10
343.020813
 20
147.904999
 40
1.500000
 50
180.000009
 51
269.999997
  0
ARC
  8
LC-003-002-----0
 62
     1
  6
CONTINUOUS
 10
404.020813
 20
129.904999
 40
1.500000
 50
180.000009
 51
269.999997
  0
ARC
  8
LC-003-002-----0
 62
     1
  6
CONTINUOUS
 10
414.020813
 20
129.904999
 40
1.500000
 50
269.999997
 51
0.000000
  0
ARC
  8
LC-003-002-----0
 62
     1
  6
CONTINUOUS
 10
404.020813
 20
222.904999
 40
1.500000
 50
90.000003
 51
180.000009
  0
ARC
  8
LC-003-002-----0
 62
     1
  6
CONTINUOUS
 10
414.020813
 20
222.904999
 40
1.500000
 50
0.000000
 51
90.000003
  0
LINE
  8
LC-003-002-----0
 62
     1
  6
CONTINUOUS
 10
400.940826
 20
206.404999
 11
400.940826
 21
204.904999
  0
LINE
  8
LC-003-002-----0
 62
     1
  6
CONTINUOUS
 10
400.940826
 20
204.904999
 11
402.520813
 21
204.904999
  0
LINE
  8
LC-003-002-----0
 62
     1
  6
CONTINUOUS
 10
400.940826
 20
147.904999
 11
402.520813
 21
147.904999
  0
LINE
  8
LC-003-002-----0
 62
     1
  6
CONTINUOUS
 10
322.979614
 20
191.404999
 11
341.520813
 21
191.404999
  0
LINE
  8
LC-003-002-----0
 62
     1
  6
CONTINUOUS
 10
323.063324
 20
161.404999
 11
341.520813
 21
161.404999
  0
LINE
  8
LC-006-012-----0
 62
     2
  6
CONTINUOUS
 10
323.063324
 20
161.404999
 11
323.559326
 21
166.326996
  0
LINE
  8
LC-006-012-----0
 62
     2
  6
CONTINUOUS
 10
323.559326
 20
166.326996
 11
322.506073
 21
181.114136
  0
LINE
  8
LC-006-012-----0
 62
     2
  6
CONTINUOUS
 10
322.506073
 20
181.114136
 11
322.979614
 21
191.404999
  0
LINE
  8
LC-006-012-----0
 62
     2
  6
CONTINUOUS
 10
433.398041
 20
161.404999
 11
433.826324
 21
166.521393
  0
LINE
  8
LC-006-012-----0
 62
     2
  6
CONTINUOUS
 10
433.826324
 20
166.521393
 11
432.114807
 21
180.919724
  0
LINE
  8
LC-006-012-----0
 62
     2
  6
CONTINUOUS
 10
432.114807
 20
180.919724
 11
432.313263
 21
191.404999
  0
LINE
  8
LC-003-002-----0
 62
     1
  6
CONTINUOUS
 10
341.520813
 20
191.404999
 11
415.520813
 21
191.404999
  0
LINE
  8
LC-003-002-----0
 62
     1
  6
CONTINUOUS
 10
415.520813
 20
191.404999
 11
432.313263
 21
191.404999
  0
LINE
  8
LC-004-006-----0
 62
     2
  6
DASHED
 10
341.520813
 20
161.404999
 11
415.520813
 21
161.404999
  0
LINE
  8
LC-003-002-----0
 62
     1
  6
CONTINUOUS
 10
415.520813
 20
161.404999
 11
433.398041
 21
161.404999
  0
LINE
  8
LC-005-002-RND-0
 62
     2
  6
DASHDOT
 10
460.620148
 20
176.404999
 11
564.278015
 21
176.404999
  0
LINE
  8
LC-005-002-RND-0
 62
     2
  6
DASHDOT
 10
512.681763
 20
229.398041
 11
512.681763
 21
123.643959
  0
CIRCLE
  8
LC-003-002-----0
 62
     1
  6
CONTINUOUS
 10
512.681763
 20
176.404999
 40
15.000000
  0
CIRCLE
  8
LC-003-002-----0
 62
     1
  6
CONTINUOUS
 10
512.681763
 20
176.404999
 40
30.000000
  0
ARC
  8
LC-003-002-----0
 62
     1
  6
CONTINUOUS
 10
512.681763
 20
176.404999
 40
48.000000
 50
263.624836
 51
276.375166
  0
CIRCLE
  8
LC-005-002-RND-0
 62
     2
  6
DASHDOT
 10
512.681763
 20
176.404999
 40
39.000000
  0
CIRCLE
  8
LC-004-006-----0
 62
     2
  6
DASHED
 10
512.681763
 20
215.404999
 40
7.500000
  0
CIRCLE
  8
LC-003-002-----0
 62
     1
  6
CONTINUOUS
 10
512.681763
 20
215.404999
 40
4.500000
  0
CIRCLE
  8
LC-003-002-----0
 62
     1
  6
CONTINUOUS
 10
473.681763
 20
176.404999
 40
4.500000
  0
LINE
  8
LC-003-002-----0
 62
     1
  6
CONTINUOUS
 10
518.011597
 20
128.701813
 11
560.384949
 21
171.075165
  0
CIRCLE
  8
LC-004-006-----0
 62
     2
  6
DASHED
 10
473.681763
 20
176.404999
 40
7.500000
  0
CIRCLE
  8
LC-004-006-----0
 62
     2
  6
DASHED
 10
512.681763
 20
137.404999
 40
7.500000
  0
CIRCLE
  8
LC-003-002-----0
 62
     1
  6
CONTINUOUS
 10
512.681763
 20
137.404999
 40
4.500000
  0
CIRCLE
  8
LC-004-006-----0
 62
     2
  6
DASHED
 10
551.681763
 20
176.404999
 40
7.500000
  0
CIRCLE
  8
LC-003-002-----0
 62
     1
  6
CONTINUOUS
 10
551.681763
 20
176.404999
 40
4.500000
  0
LINE
  8
LC-003-002-----0
 62
     1
  6
CONTINUOUS
 10
560.384949
 20
181.734833
 11
518.011597
 21
224.108170
  0
LINE
  8
LC-003-002-----0
 62
     1
  6
CONTINUOUS
 10
507.351929
 20
224.108170
 11
464.978577
 21
181.734833
  0
LINE
  8
LC-003-002-----0
 62
     1
  6
CONTINUOUS
 10
464.978577
 20
171.075165
 11
507.351929
 21
128.701813
  0
ARC
  8
LC-003-002-----0
 62
     1
  6
CONTINUOUS
 10
512.681763
 20
176.404999
 40
48.000000
 50
173.624829
 51
186.375171
  0
ARC
  8
LC-003-002-----0
 62
     1
  6
CONTINUOUS
 10
512.681763
 20
176.404999
 40
48.000000
 50
83.624834
 51
96.375164
  0
ARC
  8
LC-003-002-----0
 62
     1
  6
CONTINUOUS
 10
512.681763
 20
176.404999
 40
48.000000
 50
353.624833
 51
6.375167
  0
LINE
  8
LC-005-002-RND-0
 62
     2
  6
DASHDOT
 10
418.953613
 20
215.404999
 11
399.641449
 21
215.404999
  0
LINE
  8
LC-003-002-----0
 62
     1
  6
CONTINUOUS
 10
406.520813
 20
219.904999
 11
402.520813
 21
219.904999
  0
LINE
  8
LC-003-002-----0
 62
     1
  6
CONTINUOUS
 10
415.520813
 20
222.904999
 11
406.520813
 21
222.904999
  0
LINE
  8
LC-003-002-----0
 62
     1
  6
CONTINUOUS
 10
406.520813
 20
222.904999
 11
406.520813
 21
207.904999
  0
LINE
  8
LC-003-002-----0
 62
     1
  6
CONTINUOUS
 10
406.520813
 20
210.904999
 11
402.520813
 21
210.904999
  0
LINE
  8
LC-003-002-----0
 62
     1
  6
CONTINUOUS
 10
415.520813
 20
207.904999
 11
406.520813
 21
207.904999
  0
LINE
  8
LC-005-002-RND-0
 62
     2
  6
DASHDOT
 10
418.953613
 20
137.404999
 11
399.641449
 21
137.404999
  0
LINE
  8
LC-004-006-----0
 62
     2
  6
DASHED
 10
406.520813
 20
132.904999
 11
402.520813
 21
132.904999
  0
LINE
  8
LC-004-006-----0
 62
     2
  6
DASHED
 10
415.520813
 20
129.904999
 11
406.520813
 21
129.904999
  0
LINE
  8
LC-004-006-----0
 62
     2
  6
DASHED
 10
406.520813
 20
129.904999
 11
406.520813
 21
144.904999
  0
LINE
  8
LC-004-006-----0
 62
     2
  6
DASHED
 10
406.520813
 20
141.904999
 11
402.520813
 21
141.904999
  0
LINE
  8
LC-004-006-----0
 62
     2
  6
DASHED
 10
415.520813
 20
144.904999
 11
406.520813
 21
144.904999
  0
LINE
  8
LC-003-002-----0
 62
     1
  6
CONTINUOUS
 10
341.520813
 20
176.404999
 11
341.520813
 21
147.904999
  0
LINE
  8
LC-003-002-----0
 62
     1
  6
CONTINUOUS
 10
400.940826
 20
176.404999
 11
400.940826
 21
146.404999
  0
LINE
  8
LC-003-002-----0
 62
     1
  6
CONTINUOUS
 10
402.520813
 20
176.404999
 11
402.520813
 21
129.904999
  0
LINE
  8
LC-003-002-----0
 62
     1
  6
CONTINUOUS
 10
415.520813
 20
176.404999
 11
415.520813
 21
129.904999
  0
CIRCLE
  8
LC-003-002-----0
 62
     1
  6
CONTINUOUS
 10
375.020813
 20
193.154999
 40
1.750000
  0
CIRCLE
  8
LC-003-002-----0
 62
     1
  6
CONTINUOUS
 10
512.681763
 20
176.404999
 40
26.000000
  0
CIRCLE
  8
LC-003-002-----0
 62
     1
  6
CONTINUOUS
 10
512.681763
 20
176.404999
 40
23.000000
  0
CIRCLE
  8
LC-003-002-----0
 62
     1
  6
CONTINUOUS
 10
512.681763
 20
176.404999
 40
20.000000
  0
CIRCLE
  8
LC-003-002-----0
 62
     1
  6
CONTINUOUS
 10
378.520813
 20
193.154999
 40
1.750000
  0
CIRCLE
  8
LC-003-002-----0
 62
     1
  6
CONTINUOUS
 10
382.020813
 20
193.154999
 40
1.750000
  0
CIRCLE
  8
LC-003-002-----0
 62
     1
  6
CONTINUOUS
 10
385.520813
 20
193.154999
 40
1.750000
  0
CIRCLE
  8
LC-003-002-----0
 62
     1
  6
CONTINUOUS
 10
389.020813
 20
193.154999
 40
1.750000
  0
CIRCLE
  8
LC-003-002-----0
 62
     1
  6
CONTINUOUS
 10
392.520813
 20
193.154999
 40
1.750000
  0
CIRCLE
  8
LC-003-002-----0
 62
     1
  6
CONTINUOUS
 10
396.020813
 20
193.154999
 40
1.750000
  0
CIRCLE
  8
LC-003-002-----0
 62
     1
  6
CONTINUOUS
 10
399.520813
 20
193.754990
 40
1.750000
  0
LINE
  8
LC-003-002-----0
 62
     1
  6
CONTINUOUS
 10
400.839905
 20
194.904999
 11
406.520813
 21
194.904999
  0
CIRCLE
  8
LC-003-002-----0
 62
     1
  6
CONTINUOUS
 10
371.520813
 20
193.154999
 40
1.750000
  0
CIRCLE
  8
LC-003-002-----0
 62
     1
  6
CONTINUOUS
 10
368.020813
 20
193.154999
 40
1.750000
  0
CIRCLE
  8
LC-003-002-----0
 62
     1
  6
CONTINUOUS
 10
364.520813
 20
193.154999
 40
1.750000
  0
CIRCLE
  8
LC-003-002-----0
 62
     1
  6
CONTINUOUS
 10
361.020813
 20
193.154999
 40
1.750000
  0
CIRCLE
  8
LC-003-002-----0
 62
     1
  6
CONTINUOUS
 10
357.520813
 20
193.754990
 40
1.750000
  0
LINE
  8
LC-003-002-----0
 62
     1
  6
CONTINUOUS
 10
358.839905
 20
194.904999
 11
398.201721
 21
194.904999
  0
CIRCLE
  8
LC-003-002-----0
 62
     1
  6
CONTINUOUS
 10
371.520813
 20
199.904999
 40
2.000000
  0
LINE
  8
LC-003-002-----0
 62
     1
  6
CONTINUOUS
 10
341.520813
 20
201.904999
 11
343.520813
 21
201.904999
  0
CIRCLE
  8
LC-003-002-----0
 62
     1
  6
CONTINUOUS
 10
378.520813
 20
199.904999
 40
2.000000
  0
CIRCLE
  8
LC-003-002-----0
 62
     1
  6
CONTINUOUS
 10
385.520813
 20
199.904999
 40
2.000000
  0
CIRCLE
  8
LC-003-002-----0
 62
     1
  6
CONTINUOUS
 10
392.520813
 20
199.904999
 40
2.000000
  0
CIRCLE
  8
LC-003-002-----0
 62
     1
  6
CONTINUOUS
 10
406.520813
 20
199.904999
 40
2.000000
  0
CIRCLE
  8
LC-003-002-----0
 62
     1
  6
CONTINUOUS
 10
364.520813
 20
199.904999
 40
2.000000
  0
CIRCLE
  8
LC-003-002-----0
 62
     1
  6
CONTINUOUS
 10
350.520813
 20
199.904999
 40
2.000000
  0
LINE
  8
LC-003-002-----0
 62
     1
  6
CONTINUOUS
 10
413.520813
 20
202.904999
 11
413.520813
 21
191.404999
  0
LINE
  8
LC-003-002-----0
 62
     1
  6
CONTINUOUS
 10
412.520813
 20
202.904999
 11
412.520813
 21
191.404999
  0
LINE
  8
LC-003-002-----0
 62
     1
  6
CONTINUOUS
 10
412.520813
 20
202.904999
 11
413.520813
 21
202.904999
  0
LINE
  8
LC-003-002-----0
 62
     1
  6
CONTINUOUS
 10
413.520813
 20
201.904999
 11
415.520813
 21
201.904999
  0
LINE
  8
LC-003-002-----0
 62
     1
  6
CONTINUOUS
 10
399.520813
 20
196.904999
 11
399.520813
 21
201.904999
  0
LINE
  8
LC-003-002-----0
 62
     1
  6
CONTINUOUS
 10
401.020813
 20
196.904999
 11
401.020813
 21
201.904999
  0
LINE
  8
LC-003-002-----0
 62
     1
  6
CONTINUOUS
 10
399.520813
 20
196.904999
 11
401.020813
 21
196.904999
  0
LINE
  8
LC-003-002-----0
 62
     1
  6
CONTINUOUS
 10
401.020813
 20
197.904999
 11
412.520813
 21
197.904999
  0
LINE
  8
LC-003-002-----0
 62
     1
  6
CONTINUOUS
 10
406.520813
 20
195.904999
 11
406.520813
 21
191.404999
  0
LINE
  8
LC-003-002-----0
 62
     1
  6
CONTINUOUS
 10
407.520813
 20
195.904999
 11
407.520813
 21
191.404999
  0
LINE
  8
LC-003-002-----0
 62
     1
  6
CONTINUOUS
 10
406.520813
 20
195.904999
 11
407.520813
 21
195.904999
  0
LINE
  8
LC-003-002-----0
 62
     1
  6
CONTINUOUS
 10
407.520813
 20
194.904999
 11
412.520813
 21
194.904999
  0
LINE
  8
LC-003-002-----0
 62
     1
  6
CONTINUOUS
 10
357.520813
 20
196.904999
 11
357.520813
 21
201.904999
  0
LINE
  8
LC-003-002-----0
 62
     1
  6
CONTINUOUS
 10
356.020813
 20
196.904999
 11
356.020813
 21
201.904999
  0
LINE
  8
LC-003-002-----0
 62
     1
  6
CONTINUOUS
 10
357.520813
 20
196.904999
 11
356.020813
 21
196.904999
  0
LINE
  8
LC-003-002-----0
 62
     1
  6
CONTINUOUS
 10
350.520813
 20
195.904999
 11
350.520813
 21
191.404999
  0
LINE
  8
LC-003-002-----0
 62
     1
  6
CONTINUOUS
 10
349.520813
 20
195.904999
 11
349.520813
 21
191.404999
  0
LINE
  8
LC-003-002-----0
 62
     1
  6
CONTINUOUS
 10
350.520813
 20
195.904999
 11
349.520813
 21
195.904999
  0
LINE
  8
LC-003-002-----0
 62
     1
  6
CONTINUOUS
 10
343.520813
 20
202.904999
 11
343.520813
 21
191.404999
  0
LINE
  8
LC-003-002-----0
 62
     1
  6
CONTINUOUS
 10
344.520813
 20
202.904999
 11
344.520813
 21
191.404999
  0
LINE
  8
LC-003-002-----0
 62
     1
  6
CONTINUOUS
 10
344.520813
 20
202.904999
 11
343.520813
 21
202.904999
  0
LINE
  8
LC-003-002-----0
 62
     1
  6
CONTINUOUS
 10
357.520813
 20
197.904999
 11
399.520813
 21
197.904999
  0
LINE
  8
LC-003-002-----0
 62
     1
  6
CONTINUOUS
 10
350.520813
 20
194.904999
 11
356.201721
 21
194.904999
  0
LINE
  8
LC-003-002-----0
 62
     1
  6
CONTINUOUS
 10
344.520813
 20
194.904999
 11
349.520813
 21
194.904999
  0
LINE
  8
LC-003-002-----0
 62
     1
  6
CONTINUOUS
 10
344.520813
 20
197.904999
 11
356.020813
 21
197.904999
  0
LINE
  8
LC-003-002-----0
 62
     1
  6
CONTINUOUS
 10
344.520813
 20
201.904999
 11
412.520813
 21
201.904999
  0
ENDSEC
  0
EOF
