  0
SECTION
  2
HEADER
  9
$LIMMIN
 10
-46.727470
 20
3.667239
  9
$LIMMAX
 10
154.215302
 20
69.476700
  9
$EXTMIN
 10
-46.727470
 20
3.667239
  9
$EXTMAX
 10
154.215302
 20
69.476700
  0
ENDSEC
  0
SECTION
  2
TABLES
  0
TABLE
  2
LTYPE
 70
     3
  0
LTYPE
  2
CONTINUOUS
 70
    64
  3
Ausgezogene Linie
 72
    65
 73
     0
 40
0.0
  0
LTYPE
  2
DASHED
 70
    64
  3
__ __ __ __ __ __ __ __ __ __ __ __ __ __ __
 72
    65
 73
     2
 40
0.75
 49
0.5
 49
-0.25
  0
LTYPE
  2
DASHDOT
 70
    64
  3
__ . __ . __ . __ . __ . __ . __ . __ . __ . __
 72
    65
 73
     4
 40
1.0
 49
0.5
 49
-0.25
 49
0.0
 49
-0.25
  0
ENDTAB
  0
TABLE
  2
LAYER
 70
     4
  0
LAYER
  2
LC-003-002-----0
 70
    64
 62
     7
  6
CONTINUOUS
  0
LAYER
  2
LC-005-002-RND-0
 70
    64
 62
     7
  6
CONTINUOUS
  0
LAYER
  2
LC-004-006-----0
 70
    64
 62
     7
  6
CONTINUOUS
  0
LAYER
  2
LC-006-012-----0
 70
    64
 62
     7
  6
CONTINUOUS
  0
ENDTAB
  0
TABLE
  2
STYLE
 70
     1
  0
STYLE
  2
TXT8
 70
    64
 40
0.0
 41
1.0
 50
0.0
 71
     0
 42
3.500000
  3
TXT8
  4

  0
ENDTAB
  0
ENDSEC
  0
SECTION
  2
BLOCKS
  0
ENDSEC
  0
SECTION
  2
ENTITIES
  0
LINE
  8
LC-005-002-RND-0
 62
     2
  6
DASHDOT
 10
-46.727470
 20
36.628773
 11
56.362450
 21
36.628773
  0
LINE
  8
LC-003-002-----0
 62
     1
  6
CONTINUOUS
 10
-29.650089
 20
55.128773
 11
2.849909
 21
55.128773
  0
LINE
  8
LC-003-002-----0
 62
     1
  6
CONTINUOUS
 10
-29.650089
 20
18.128773
 11
2.849909
 21
18.128773
  0
LINE
  8
LC-003-002-----0
 62
     1
  6
CONTINUOUS
 10
38.349911
 20
66.628777
 11
31.349911
 21
66.628777
  0
LINE
  8
LC-003-002-----0
 62
     1
  6
CONTINUOUS
 10
38.349911
 20
6.628773
 11
31.349911
 21
6.628773
  0
LINE
  8
LC-003-002-----0
 62
     1
  6
CONTINUOUS
 10
-30.650089
 20
54.128773
 11
-30.650089
 21
19.128773
  0
LINE
  8
LC-003-002-----0
 62
     1
  6
CONTINUOUS
 10
39.349911
 20
65.628777
 11
39.349911
 21
7.628770
  0
LINE
  8
LC-003-002-----0
 62
     1
  6
CONTINUOUS
 10
30.349911
 20
7.628773
 11
30.349911
 21
65.628777
  0
LINE
  8
LC-003-002-----0
 62
     1
  6
CONTINUOUS
 10
-43.262760
 20
48.128773
 11
-30.650091
 21
48.128773
  0
LINE
  8
LC-003-002-----0
 62
     1
  6
CONTINUOUS
 10
-44.204971
 20
25.128773
 11
-30.650087
 21
25.128773
  0
LINE
  8
LC-006-012-----0
 62
     2
  6
CONTINUOUS
 10
-44.204971
 20
25.128773
 11
-43.687931
 21
29.141802
  0
LINE
  8
LC-006-012-----0
 62
     2
  6
CONTINUOUS
 10
-43.687931
 20
29.141802
 11
-44.123108
 21
40.012390
  0
LINE
  8
LC-006-012-----0
 62
     2
  6
CONTINUOUS
 10
-44.123108
 20
40.012390
 11
-43.262760
 21
48.128773
  0
LINE
  8
LC-006-012-----0
 62
     2
  6
CONTINUOUS
 10
54.253227
 20
25.128773
 11
54.715473
 21
30.105696
  0
LINE
  8
LC-006-012-----0
 62
     2
  6
CONTINUOUS
 10
54.715473
 20
30.105696
 11
54.019192
 21
40.976284
  0
LINE
  8
LC-006-012-----0
 62
     2
  6
CONTINUOUS
 10
54.019192
 20
40.976284
 11
54.464962
 21
48.128773
  0
ARC
  8
LC-003-002-----0
 62
     1
  6
CONTINUOUS
 10
-29.650089
 20
54.128773
 40
1.000000
 50
90.000003
 51
180.000009
  0
ARC
  8
LC-003-002-----0
 62
     1
  6
CONTINUOUS
 10
-29.650089
 20
19.128773
 40
1.000000
 50
180.000009
 51
269.999997
  0
LINE
  8
LC-003-002-----0
 62
     1
  6
CONTINUOUS
 10
29.349911
 20
55.128773
 11
29.349911
 21
18.128773
  0
LINE
  8
LC-003-002-----0
 62
     1
  6
CONTINUOUS
 10
29.349911
 20
18.878773
 11
30.349911
 21
18.878773
  0
LINE
  8
LC-003-002-----0
 62
     1
  6
CONTINUOUS
 10
29.349911
 20
54.378773
 11
30.349911
 21
54.378773
  0
LINE
  8
LC-005-002-RND-0
 62
     2
  6
DASHDOT
 10
42.335964
 20
60.128773
 11
26.468569
 21
60.128773
  0
LINE
  8
LC-004-006-----0
 62
     2
  6
DASHED
 10
-30.650089
 20
48.128773
 11
39.349911
 21
48.128773
  0
LINE
  8
LC-003-002-----0
 62
     1
  6
CONTINUOUS
 10
39.349911
 20
48.128773
 11
54.464962
 21
48.128773
  0
LINE
  8
LC-004-006-----0
 62
     2
  6
DASHED
 10
-30.650089
 20
25.128773
 11
39.349911
 21
25.128773
  0
LINE
  8
LC-003-002-----0
 62
     1
  6
CONTINUOUS
 10
39.349911
 20
25.128773
 11
54.253227
 21
25.128773
  0
LINE
  8
LC-003-002-----0
 62
     1
  6
CONTINUOUS
 10
30.349911
 20
7.628773
 11
31.349911
 21
6.628773
  0
LINE
  8
LC-003-002-----0
 62
     1
  6
CONTINUOUS
 10
30.349911
 20
65.628777
 11
31.349911
 21
66.628777
  0
LINE
  8
LC-003-002-----0
 62
     1
  6
CONTINUOUS
 10
31.349911
 20
6.628773
 11
31.349911
 21
66.628777
  0
LINE
  8
LC-003-002-----0
 62
     1
  6
CONTINUOUS
 10
39.349911
 20
65.628777
 11
38.349911
 21
66.628777
  0
LINE
  8
LC-003-002-----0
 62
     1
  6
CONTINUOUS
 10
39.349911
 20
7.628773
 11
38.349911
 21
6.628773
  0
LINE
  8
LC-003-002-----0
 62
     1
  6
CONTINUOUS
 10
38.349911
 20
66.628777
 11
38.349911
 21
6.628770
  0
LINE
  8
LC-005-002-RND-0
 62
     2
  6
DASHDOT
 10
4.349910
 20
16.628773
 11
4.349910
 21
56.628773
  0
LINE
  8
LC-003-002-----0
 62
     1
  6
CONTINUOUS
 10
5.849910
 20
18.128773
 11
5.849910
 21
55.128773
  0
LINE
  8
LC-003-002-----0
 62
     1
  6
CONTINUOUS
 10
2.849910
 20
18.128773
 11
2.849910
 21
55.128773
  0
ARC
  8
LC-003-002-----0
 62
     1
  6
CONTINUOUS
 10
4.349910
 20
18.128773
 40
1.500000
 50
0.000000
 51
180.000009
  0
ARC
  8
LC-003-002-----0
 62
     1
  6
CONTINUOUS
 10
4.349910
 20
55.128773
 40
1.500000
 50
180.000009
 51
0.000000
  0
LINE
  8
LC-003-002-----0
 62
     1
  6
CONTINUOUS
 10
5.849910
 20
18.128773
 11
29.349911
 21
18.128773
  0
LINE
  8
LC-003-002-----0
 62
     1
  6
CONTINUOUS
 10
5.849910
 20
55.128773
 11
29.349911
 21
55.128773
  0
LINE
  8
LC-005-002-RND-0
 62
     2
  6
DASHDOT
 10
87.357521
 20
36.628773
 11
154.215302
 21
36.628773
  0
LINE
  8
LC-005-002-RND-0
 62
     2
  6
DASHDOT
 10
121.267975
 20
69.476700
 11
121.267975
 21
3.667239
  0
CIRCLE
  8
LC-003-002-----0
 62
     1
  6
CONTINUOUS
 10
121.267975
 20
36.628773
 40
30.000000
  0
CIRCLE
  8
LC-003-002-----0
 62
     1
  6
CONTINUOUS
 10
121.267975
 20
36.628773
 40
18.500000
  0
CIRCLE
  8
LC-005-002-RND-0
 62
     2
  6
DASHDOT
 10
121.267975
 20
36.628773
 40
23.500000
  0
CIRCLE
  8
LC-004-006-----0
 62
     2
  6
DASHED
 10
121.267975
 20
60.128773
 40
5.000000
  0
CIRCLE
  8
LC-003-002-----0
 62
     1
  6
CONTINUOUS
 10
121.267975
 20
36.628773
 40
29.000000
  0
CIRCLE
  8
LC-003-002-----0
 62
     1
  6
CONTINUOUS
 10
121.267975
 20
60.128773
 40
2.900000
  0
CIRCLE
  8
LC-004-006-----0
 62
     2
  6
DASHED
 10
97.767975
 20
36.628773
 40
5.000000
  0
CIRCLE
  8
LC-003-002-----0
 62
     1
  6
CONTINUOUS
 10
97.767975
 20
36.628773
 40
2.900000
  0
CIRCLE
  8
LC-003-002-----0
 62
     1
  6
CONTINUOUS
 10
121.267975
 20
13.128773
 40
2.900000
  0
CIRCLE
  8
LC-004-006-----0
 62
     2
  6
DASHED
 10
121.267975
 20
13.128773
 40
5.000000
  0
CIRCLE
  8
LC-003-002-----0
 62
     1
  6
CONTINUOUS
 10
144.767975
 20
36.628773
 40
2.900000
  0
CIRCLE
  8
LC-004-006-----0
 62
     2
  6
DASHED
 10
144.767975
 20
36.628773
 40
5.000000
  0
LINE
  8
LC-005-002-RND-0
 62
     2
  6
DASHDOT
 10
122.980385
 20
46.340336
 11
123.473999
 21
49.139732
  0
ARC
  8
LC-003-002-----0
 62
     1
  6
CONTINUOUS
 10
123.299660
 20
48.151024
 40
1.000000
 50
183.947079
 51
336.052918
  0
ARC
  8
LC-003-002-----0
 62
     1
  6
CONTINUOUS
 10
121.267975
 20
36.628773
 40
11.500000
 50
84.841120
 51
95.158885
  0
ARC
  8
LC-003-002-----0
 62
     1
  6
CONTINUOUS
 10
119.236290
 20
48.151024
 40
1.000000
 50
203.947075
 51
356.052918
  0
LINE
  8
LC-005-002-RND-0
 62
     2
  6
DASHDOT
 10
119.555565
 20
46.340336
 11
119.061958
 21
49.139732
  0
LINE
  8
LC-005-002-RND-0
 62
     2
  6
DASHDOT
 10
122.980385
 20
26.917208
 11
123.473999
 21
24.117813
  0
ARC
  8
LC-003-002-----0
 62
     1
  6
CONTINUOUS
 10
123.299660
 20
25.106522
 40
1.000000
 50
23.947082
 51
176.052921
  0
ARC
  8
LC-003-002-----0
 62
     1
  6
CONTINUOUS
 10
119.236290
 20
25.106522
 40
1.000000
 50
3.947082
 51
156.052925
  0
LINE
  8
LC-005-002-RND-0
 62
     2
  6
DASHDOT
 10
119.555565
 20
26.917208
 11
119.061958
 21
24.117813
  0
ARC
  8
LC-003-002-----0
 62
     1
  6
CONTINUOUS
 10
121.267975
 20
36.628773
 40
11.500000
 50
264.841115
 51
275.158880
  0
ARC
  8
LC-003-002-----0
 62
     1
  6
CONTINUOUS
 10
121.267975
 20
36.628773
 40
11.500000
 50
284.841117
 51
75.158883
  0
ARC
  8
LC-003-002-----0
 62
     1
  6
CONTINUOUS
 10
121.267975
 20
36.628773
 40
11.500000
 50
104.841116
 51
255.158884
  0
LINE
  8
LC-003-002-----0
 62
     1
  6
CONTINUOUS
 10
54.441051
 20
47.745132
 11
39.349911
 21
47.745132
  0
ARC
  8
LC-003-002-----0
 62
     1
  6
CONTINUOUS
 10
121.267975
 20
36.628773
 40
11.900000
 50
102.747089
 51
257.252911
  0
ARC
  8
LC-003-002-----0
 62
     1
  6
CONTINUOUS
 10
119.236290
 20
25.106522
 40
0.600000
 50
331.908146
 51
188.091857
  0
ARC
  8
LC-003-002-----0
 62
     1
  6
CONTINUOUS
 10
121.267975
 20
36.628773
 40
11.900000
 50
262.747088
 51
277.252914
  0
ARC
  8
LC-003-002-----0
 62
     1
  6
CONTINUOUS
 10
123.299660
 20
25.106522
 40
0.600000
 50
351.908145
 51
208.091853
  0
ARC
  8
LC-003-002-----0
 62
     1
  6
CONTINUOUS
 10
121.267975
 20
36.628773
 40
11.900000
 50
282.747091
 51
77.252909
  0
ARC
  8
LC-003-002-----0
 62
     1
  6
CONTINUOUS
 10
123.299660
 20
48.151024
 40
0.600000
 50
151.908147
 51
8.091855
  0
ARC
  8
LC-003-002-----0
 62
     1
  6
CONTINUOUS
 10
121.267975
 20
36.628773
 40
11.900000
 50
82.747086
 51
97.252912
  0
ARC
  8
LC-003-002-----0
 62
     1
  6
CONTINUOUS
 10
119.236290
 20
48.151024
 40
0.600000
 50
171.908143
 51
28.091854
  0
LINE
  8
LC-004-006-----0
 62
     2
  6
DASHED
 10
39.349911
 20
47.745132
 11
-30.650089
 21
47.745132
  0
LINE
  8
LC-003-002-----0
 62
     1
  6
CONTINUOUS
 10
-30.650089
 20
47.745132
 11
-43.303429
 21
47.745132
  0
LINE
  8
LC-004-006-----0
 62
     2
  6
DASHED
 10
39.349911
 20
25.512415
 11
-30.650089
 21
25.512415
  0
LINE
  8
LC-003-002-----0
 62
     1
  6
CONTINUOUS
 10
-30.650089
 20
25.512415
 11
-44.155540
 21
25.512415
  0
LINE
  8
LC-003-002-----0
 62
     1
  6
CONTINUOUS
 10
54.288860
 20
25.512415
 11
39.349911
 21
25.512415
  0
LINE
  8
LC-004-006-----0
 62
     2
  6
DASHED
 10
33.649910
 20
63.028774
 11
30.349911
 21
63.028774
  0
LINE
  8
LC-004-006-----0
 62
     2
  6
DASHED
 10
39.349911
 20
65.128777
 11
33.649910
 21
65.128777
  0
LINE
  8
LC-004-006-----0
 62
     2
  6
DASHED
 10
33.649910
 20
65.128777
 11
33.649910
 21
55.128769
  0
LINE
  8
LC-004-006-----0
 62
     2
  6
DASHED
 10
33.649910
 20
57.228771
 11
30.349911
 21
57.228771
  0
LINE
  8
LC-004-006-----0
 62
     2
  6
DASHED
 10
39.349911
 20
55.128773
 11
33.649910
 21
55.128773
  0
LINE
  8
LC-005-002-RND-0
 62
     2
  6
DASHDOT
 10
42.335964
 20
13.128773
 11
26.468569
 21
13.128773
  0
LINE
  8
LC-004-006-----0
 62
     2
  6
DASHED
 10
33.649910
 20
10.228773
 11
30.349911
 21
10.228773
  0
LINE
  8
LC-004-006-----0
 62
     2
  6
DASHED
 10
33.649910
 20
8.128773
 11
33.649910
 21
18.128773
  0
LINE
  8
LC-004-006-----0
 62
     2
  6
DASHED
 10
33.649910
 20
16.028772
 11
30.349911
 21
16.028772
  0
LINE
  8
LC-004-006-----0
 62
     2
  6
DASHED
 10
39.349911
 20
18.128773
 11
33.649910
 21
18.128773
  0
LINE
  8
LC-004-006-----0
 62
     2
  6
DASHED
 10
39.349911
 20
8.128773
 11
33.649910
 21
8.128773
  0
LINE
  8
LC-004-006-----0
 62
     2
  6
DASHED
 10
33.649910
 20
41.628773
 11
33.649910
 21
31.628773
  0
LINE
  8
LC-004-006-----0
 62
     2
  6
DASHED
 10
33.649910
 20
33.728771
 11
30.349911
 21
33.728771
  0
LINE
  8
LC-004-006-----0
 62
     2
  6
DASHED
 10
39.349911
 20
31.628773
 11
33.649910
 21
31.628773
  0
LINE
  8
LC-004-006-----0
 62
     2
  6
DASHED
 10
39.349911
 20
41.628773
 11
33.649910
 21
41.628773
  0
LINE
  8
LC-004-006-----0
 62
     2
  6
DASHED
 10
33.649910
 20
39.528774
 11
30.349911
 21
39.528774
  0
CIRCLE
  8
LC-003-002-----0
 62
     1
  6
CONTINUOUS
 10
4.349910
 20
36.628773
 40
1.500000
  0
ENDSEC
  0
EOF
