  0
SECTION
  2
HEADER
  9
$LIMMIN
 10
288.670898
 20
365.614655
  9
$LIMMAX
 10
521.428406
 20
441.995239
  9
$EXTMIN
 10
288.670898
 20
365.614655
  9
$EXTMAX
 10
521.428406
 20
441.995239
  0
ENDSEC
  0
SECTION
  2
TABLES
  0
TABLE
  2
LTYPE
 70
     3
  0
LTYPE
  2
CONTINUOUS
 70
    64
  3
Ausgezogene Linie
 72
    65
 73
     0
 40
0.0
  0
LTYPE
  2
DASHED
 70
    64
  3
__ __ __ __ __ __ __ __ __ __ __ __ __ __ __
 72
    65
 73
     2
 40
0.75
 49
0.5
 49
-0.25
  0
LTYPE
  2
DASHDOT
 70
    64
  3
__ . __ . __ . __ . __ . __ . __ . __ . __ . __
 72
    65
 73
     4
 40
1.0
 49
0.5
 49
-0.25
 49
0.0
 49
-0.25
  0
ENDTAB
  0
TABLE
  2
LAYER
 70
     4
  0
LAYER
  2
LC-003-002-----0
 70
    64
 62
     7
  6
CONTINUOUS
  0
LAYER
  2
LC-005-002-RND-0
 70
    64
 62
     7
  6
CONTINUOUS
  0
LAYER
  2
LC-004-006-----0
 70
    64
 62
     7
  6
CONTINUOUS
  0
LAYER
  2
LC-006-012-----0
 70
    64
 62
     7
  6
CONTINUOUS
  0
ENDTAB
  0
TABLE
  2
STYLE
 70
     1
  0
STYLE
  2
TXT8
 70
    64
 40
0.0
 41
1.0
 50
0.0
 71
     0
 42
3.500000
  3
TXT8
  4

  0
ENDTAB
  0
ENDSEC
  0
SECTION
  2
BLOCKS
  0
ENDSEC
  0
SECTION
  2
ENTITIES
  0
LINE
  8
LC-005-002-RND-0
 62
     2
  6
DASHDOT
 10
288.670898
 20
404.194550
 11
409.366058
 21
404.194550
  0
LINE
  8
LC-003-002-----0
 62
     1
  6
CONTINUOUS
 10
308.664612
 20
426.694550
 11
345.914612
 21
426.694550
  0
LINE
  8
LC-003-002-----0
 62
     1
  6
CONTINUOUS
 10
308.664612
 20
381.694550
 11
345.914612
 21
381.694550
  0
LINE
  8
LC-003-002-----0
 62
     1
  6
CONTINUOUS
 10
378.414612
 20
439.194550
 11
386.414612
 21
439.194550
  0
LINE
  8
LC-003-002-----0
 62
     1
  6
CONTINUOUS
 10
378.414612
 20
369.194550
 11
386.414612
 21
369.194550
  0
LINE
  8
LC-003-002-----0
 62
     1
  6
CONTINUOUS
 10
307.414612
 20
425.444550
 11
307.414612
 21
382.944550
  0
LINE
  8
LC-003-002-----0
 62
     1
  6
CONTINUOUS
 10
387.414612
 20
370.194550
 11
387.414612
 21
438.194550
  0
LINE
  8
LC-003-002-----0
 62
     1
  6
CONTINUOUS
 10
377.414612
 20
370.194550
 11
377.414612
 21
438.194550
  0
LINE
  8
LC-003-002-----0
 62
     1
  6
CONTINUOUS
 10
376.164612
 20
426.694550
 11
376.164612
 21
381.694550
  0
LINE
  8
LC-003-002-----0
 62
     1
  6
CONTINUOUS
 10
376.164612
 20
425.694550
 11
377.414612
 21
425.694550
  0
LINE
  8
LC-003-002-----0
 62
     1
  6
CONTINUOUS
 10
376.164612
 20
382.694550
 11
377.414612
 21
382.694550
  0
ARC
  8
LC-003-002-----0
 62
     1
  6
CONTINUOUS
 10
308.664612
 20
382.944550
 40
1.250000
 50
180.000009
 51
269.999997
  0
ARC
  8
LC-003-002-----0
 62
     1
  6
CONTINUOUS
 10
308.664612
 20
425.444550
 40
1.250000
 50
90.000003
 51
180.000009
  0
LINE
  8
LC-003-002-----0
 62
     1
  6
CONTINUOUS
 10
378.414612
 20
369.194550
 11
377.414612
 21
370.194550
  0
LINE
  8
LC-003-002-----0
 62
     1
  6
CONTINUOUS
 10
377.414612
 20
438.194550
 11
378.414612
 21
439.194550
  0
LINE
  8
LC-003-002-----0
 62
     1
  6
CONTINUOUS
 10
378.414612
 20
369.194550
 11
378.414612
 21
439.194550
  0
LINE
  8
LC-003-002-----0
 62
     1
  6
CONTINUOUS
 10
386.414612
 20
439.194550
 11
387.414612
 21
438.194550
  0
LINE
  8
LC-003-002-----0
 62
     1
  6
CONTINUOUS
 10
386.414612
 20
369.194550
 11
387.414612
 21
370.194550
  0
LINE
  8
LC-003-002-----0
 62
     1
  6
CONTINUOUS
 10
386.414612
 20
439.194550
 11
386.414612
 21
369.194550
  0
LINE
  8
LC-005-002-RND-0
 62
     2
  6
DASHDOT
 10
347.414612
 20
380.194550
 11
347.414612
 21
428.194550
  0
LINE
  8
LC-003-002-----0
 62
     1
  6
CONTINUOUS
 10
348.914612
 20
381.694550
 11
348.914612
 21
426.694550
  0
LINE
  8
LC-003-002-----0
 62
     1
  6
CONTINUOUS
 10
345.914612
 20
381.694550
 11
345.914612
 21
426.694550
  0
ARC
  8
LC-003-002-----0
 62
     1
  6
CONTINUOUS
 10
347.414612
 20
426.694550
 40
1.500000
 50
180.000009
 51
0.000000
  0
ARC
  8
LC-003-002-----0
 62
     1
  6
CONTINUOUS
 10
347.414612
 20
381.694550
 40
1.500000
 50
0.000000
 51
180.000009
  0
LINE
  8
LC-003-002-----0
 62
     1
  6
CONTINUOUS
 10
348.914612
 20
381.694550
 11
376.164612
 21
381.694550
  0
LINE
  8
LC-003-002-----0
 62
     1
  6
CONTINUOUS
 10
348.914612
 20
426.694550
 11
376.164612
 21
426.694550
  0
LINE
  8
LC-003-002-----0
 62
     1
  6
CONTINUOUS
 10
293.048737
 20
418.194550
 11
307.414612
 21
418.194550
  0
LINE
  8
LC-003-002-----0
 62
     1
  6
CONTINUOUS
 10
292.426422
 20
390.194550
 11
307.414612
 21
390.194550
  0
LINE
  8
LC-006-012-----0
 62
     2
  6
CONTINUOUS
 10
292.426422
 20
390.194550
 11
292.791565
 21
395.645081
  0
LINE
  8
LC-006-012-----0
 62
     2
  6
CONTINUOUS
 10
292.791565
 20
395.645081
 11
292.126923
 21
408.773499
  0
LINE
  8
LC-006-012-----0
 62
     2
  6
CONTINUOUS
 10
292.126923
 20
408.773499
 11
293.048737
 21
418.194550
  0
LINE
  8
LC-006-012-----0
 62
     2
  6
CONTINUOUS
 10
406.460968
 20
390.194550
 11
406.840485
 21
396.346619
  0
LINE
  8
LC-006-012-----0
 62
     2
  6
CONTINUOUS
 10
406.840485
 20
396.346619
 11
404.979553
 21
410.076324
  0
LINE
  8
LC-006-012-----0
 62
     2
  6
CONTINUOUS
 10
404.979553
 20
410.076324
 11
404.979553
 21
418.194550
  0
LINE
  8
LC-004-006-----0
 62
     2
  6
DASHED
 10
307.414612
 20
418.194550
 11
387.414612
 21
418.194550
  0
LINE
  8
LC-003-002-----0
 62
     1
  6
CONTINUOUS
 10
387.414612
 20
418.194550
 11
404.979553
 21
418.194550
  0
LINE
  8
LC-004-006-----0
 62
     2
  6
DASHED
 10
307.414612
 20
390.194550
 11
387.414612
 21
390.194550
  0
LINE
  8
LC-003-002-----0
 62
     1
  6
CONTINUOUS
 10
387.414612
 20
390.194550
 11
406.460968
 21
390.194550
  0
LINE
  8
LC-005-002-RND-0
 62
     2
  6
DASHDOT
 10
445.635742
 20
404.194550
 11
521.428406
 21
404.194550
  0
LINE
  8
LC-005-002-RND-0
 62
     2
  6
DASHDOT
 10
483.561584
 20
441.995239
 11
483.561584
 21
365.614655
  0
ARC
  8
LC-003-002-----0
 62
     1
  6
CONTINUOUS
 10
483.561584
 20
404.194550
 40
14.000000
 50
85.836312
 51
94.163693
  0
CIRCLE
  8
LC-003-002-----0
 62
     1
  6
CONTINUOUS
 10
483.561584
 20
404.194550
 40
22.500000
  0
CIRCLE
  8
LC-003-002-----0
 62
     1
  6
CONTINUOUS
 10
483.561584
 20
404.194550
 40
35.000000
  0
CIRCLE
  8
LC-005-002-RND-0
 62
     2
  6
DASHDOT
 10
483.561584
 20
404.194550
 40
27.000000
  0
CIRCLE
  8
LC-004-006-----0
 62
     2
  6
DASHED
 10
483.561584
 20
431.194550
 40
5.500000
  0
CIRCLE
  8
LC-003-002-----0
 62
     1
  6
CONTINUOUS
 10
483.561584
 20
431.194550
 40
3.500000
  0
CIRCLE
  8
LC-004-006-----0
 62
     2
  6
DASHED
 10
456.561584
 20
404.194550
 40
5.500000
  0
CIRCLE
  8
LC-003-002-----0
 62
     1
  6
CONTINUOUS
 10
483.561584
 20
404.194550
 40
34.000000
  0
CIRCLE
  8
LC-003-002-----0
 62
     1
  6
CONTINUOUS
 10
456.561584
 20
404.194550
 40
3.500000
  0
CIRCLE
  8
LC-003-002-----0
 62
     1
  6
CONTINUOUS
 10
483.561584
 20
377.194550
 40
3.500000
  0
CIRCLE
  8
LC-004-006-----0
 62
     2
  6
DASHED
 10
483.561584
 20
377.194550
 40
5.500000
  0
CIRCLE
  8
LC-004-006-----0
 62
     2
  6
DASHED
 10
510.561584
 20
404.194550
 40
5.500000
  0
CIRCLE
  8
LC-003-002-----0
 62
     1
  6
CONTINUOUS
 10
510.561584
 20
404.194550
 40
3.500000
  0
LINE
  8
LC-005-002-RND-0
 62
     2
  6
DASHDOT
 10
391.478729
 20
431.194550
 11
372.908020
 21
431.194550
  0
LINE
  8
LC-004-006-----0
 62
     2
  6
DASHED
 10
483.561584
 20
436.694550
 11
483.561584
 21
431.194550
  0
LINE
  8
LC-004-006-----0
 62
     2
  6
DASHED
 10
387.414612
 20
436.694550
 11
380.614594
 21
436.694550
  0
LINE
  8
LC-004-006-----0
 62
     2
  6
DASHED
 10
380.614594
 20
434.694550
 11
377.414612
 21
434.694550
  0
LINE
  8
LC-004-006-----0
 62
     2
  6
DASHED
 10
380.614594
 20
425.694550
 11
380.614594
 21
436.694550
  0
LINE
  8
LC-004-006-----0
 62
     2
  6
DASHED
 10
387.414612
 20
425.694550
 11
380.614594
 21
425.694550
  0
LINE
  8
LC-004-006-----0
 62
     2
  6
DASHED
 10
380.614594
 20
427.694550
 11
377.414612
 21
427.694550
  0
LINE
  8
LC-005-002-RND-0
 62
     2
  6
DASHDOT
 10
391.478729
 20
377.194550
 11
372.908020
 21
377.194550
  0
LINE
  8
LC-004-006-----0
 62
     2
  6
DASHED
 10
387.414612
 20
371.694550
 11
380.614594
 21
371.694550
  0
LINE
  8
LC-004-006-----0
 62
     2
  6
DASHED
 10
380.614594
 20
373.694550
 11
377.414612
 21
373.694550
  0
LINE
  8
LC-004-006-----0
 62
     2
  6
DASHED
 10
380.614594
 20
382.694550
 11
380.614594
 21
371.694550
  0
LINE
  8
LC-004-006-----0
 62
     2
  6
DASHED
 10
387.414612
 20
382.694550
 11
380.614594
 21
382.694550
  0
LINE
  8
LC-004-006-----0
 62
     2
  6
DASHED
 10
380.614594
 20
380.694550
 11
377.414612
 21
380.694550
  0
LINE
  8
LC-004-006-----0
 62
     2
  6
DASHED
 10
380.614594
 20
398.694550
 11
380.614594
 21
409.694550
  0
LINE
  8
LC-004-006-----0
 62
     2
  6
DASHED
 10
387.414612
 20
398.694550
 11
380.614594
 21
398.694550
  0
LINE
  8
LC-004-006-----0
 62
     2
  6
DASHED
 10
380.614594
 20
400.694550
 11
377.414612
 21
400.694550
  0
LINE
  8
LC-004-006-----0
 62
     2
  6
DASHED
 10
387.414612
 20
409.694550
 11
380.614594
 21
409.694550
  0
LINE
  8
LC-004-006-----0
 62
     2
  6
DASHED
 10
380.614594
 20
407.694550
 11
377.414612
 21
407.694550
  0
ARC
  8
LC-003-002-----0
 62
     1
  6
CONTINUOUS
 10
486.062134
 20
418.375763
 40
1.500000
 50
188.363603
 51
331.636391
  0
LINE
  8
LC-005-002-RND-0
 62
     2
  6
DASHDOT
 10
485.577728
 20
415.628540
 11
486.213867
 21
419.236237
  0
ARC
  8
LC-003-002-----0
 62
     1
  6
CONTINUOUS
 10
481.061066
 20
418.375763
 40
1.500000
 50
208.363612
 51
351.636391
  0
LINE
  8
LC-005-002-RND-0
 62
     2
  6
DASHDOT
 10
481.545471
 20
415.628540
 11
480.909332
 21
419.236237
  0
ARC
  8
LC-003-002-----0
 62
     1
  6
CONTINUOUS
 10
486.062134
 20
390.013306
 40
1.500000
 50
28.363609
 51
171.636397
  0
LINE
  8
LC-005-002-RND-0
 62
     2
  6
DASHDOT
 10
485.577728
 20
392.760529
 11
486.213867
 21
389.152863
  0
ARC
  8
LC-003-002-----0
 62
     1
  6
CONTINUOUS
 10
481.061066
 20
390.013306
 40
1.500000
 50
8.363609
 51
151.636388
  0
LINE
  8
LC-005-002-RND-0
 62
     2
  6
DASHDOT
 10
481.545471
 20
392.760529
 11
480.909332
 21
389.152863
  0
ARC
  8
LC-003-002-----0
 62
     1
  6
CONTINUOUS
 10
483.561584
 20
404.194550
 40
14.000000
 50
105.836308
 51
254.163692
  0
ARC
  8
LC-003-002-----0
 62
     1
  6
CONTINUOUS
 10
483.561584
 20
404.194550
 40
14.000000
 50
265.836307
 51
274.163688
  0
ARC
  8
LC-003-002-----0
 62
     1
  6
CONTINUOUS
 10
483.561584
 20
404.194550
 40
14.000000
 50
285.836310
 51
74.163690
  0
LINE
  8
LC-003-002-----0
 62
     1
  6
CONTINUOUS
 10
406.493744
 20
390.725891
 11
387.414612
 21
390.725891
  0
ARC
  8
LC-003-002-----0
 62
     1
  6
CONTINUOUS
 10
483.561584
 20
404.194550
 40
14.500000
 50
103.946033
 51
256.053967
  0
ARC
  8
LC-003-002-----0
 62
     1
  6
CONTINUOUS
 10
481.061066
 20
390.013306
 40
1.000000
 50
346.237260
 51
173.762745
  0
ARC
  8
LC-003-002-----0
 62
     1
  6
CONTINUOUS
 10
483.561584
 20
404.194550
 40
14.500000
 50
263.946032
 51
276.053963
  0
ARC
  8
LC-003-002-----0
 62
     1
  6
CONTINUOUS
 10
486.062134
 20
390.013306
 40
1.000000
 50
6.237260
 51
193.762744
  0
ARC
  8
LC-003-002-----0
 62
     1
  6
CONTINUOUS
 10
483.561584
 20
404.194550
 40
14.500000
 50
283.946035
 51
76.053965
  0
ARC
  8
LC-003-002-----0
 62
     1
  6
CONTINUOUS
 10
486.062134
 20
418.375763
 40
1.000000
 50
166.237256
 51
353.762740
  0
ARC
  8
LC-003-002-----0
 62
     1
  6
CONTINUOUS
 10
483.561584
 20
404.194550
 40
14.500000
 50
83.946037
 51
96.053968
  0
ARC
  8
LC-003-002-----0
 62
     1
  6
CONTINUOUS
 10
481.061066
 20
418.375763
 40
1.000000
 50
186.237255
 51
13.762740
  0
LINE
  8
LC-004-006-----0
 62
     2
  6
DASHED
 10
387.414612
 20
390.725891
 11
307.414612
 21
390.725891
  0
LINE
  8
LC-003-002-----0
 62
     1
  6
CONTINUOUS
 10
307.414612
 20
390.725891
 11
292.462036
 21
390.725891
  0
LINE
  8
LC-004-006-----0
 62
     2
  6
DASHED
 10
387.414612
 20
417.663177
 11
307.414612
 21
417.663177
  0
LINE
  8
LC-003-002-----0
 62
     1
  6
CONTINUOUS
 10
307.414612
 20
417.663177
 11
292.996765
 21
417.663177
  0
LINE
  8
LC-003-002-----0
 62
     1
  6
CONTINUOUS
 10
404.979553
 20
417.663177
 11
387.414612
 21
417.663177
  0
CIRCLE
  8
LC-003-002-----0
 62
     1
  6
CONTINUOUS
 10
347.414612
 20
404.194550
 40
1.500000
  0
ENDSEC
  0
EOF
