  0
SECTION
  2
HEADER
  9
$LIMMIN
 10
286.670563
 20
199.626083
  9
$LIMMAX
 10
557.733643
 20
296.874023
  9
$EXTMIN
 10
286.670563
 20
199.626083
  9
$EXTMAX
 10
557.733643
 20
296.874023
  0
ENDSEC
  0
SECTION
  2
TABLES
  0
TABLE
  2
LTYPE
 70
     3
  0
LTYPE
  2
CONTINUOUS
 70
    64
  3
Ausgezogene Linie
 72
    65
 73
     0
 40
0.0
  0
LTYPE
  2
DASHED
 70
    64
  3
__ __ __ __ __ __ __ __ __ __ __ __ __ __ __
 72
    65
 73
     2
 40
0.75
 49
0.5
 49
-0.25
  0
LTYPE
  2
DASHDOT
 70
    64
  3
__ . __ . __ . __ . __ . __ . __ . __ . __ . __
 72
    65
 73
     4
 40
1.0
 49
0.5
 49
-0.25
 49
0.0
 49
-0.25
  0
ENDTAB
  0
TABLE
  2
LAYER
 70
     4
  0
LAYER
  2
LC-003-002-----0
 70
    64
 62
     7
  6
CONTINUOUS
  0
LAYER
  2
LC-005-002-RND-0
 70
    64
 62
     7
  6
CONTINUOUS
  0
LAYER
  2
LC-004-006-----0
 70
    64
 62
     7
  6
CONTINUOUS
  0
LAYER
  2
LC-006-012-----0
 70
    64
 62
     7
  6
CONTINUOUS
  0
ENDTAB
  0
TABLE
  2
STYLE
 70
     1
  0
STYLE
  2
TXT8
 70
    64
 40
0.0
 41
1.0
 50
0.0
 71
     0
 42
3.500000
  3
TXT8
  4

  0
ENDTAB
  0
ENDSEC
  0
SECTION
  2
BLOCKS
  0
ENDSEC
  0
SECTION
  2
ENTITIES
  0
LINE
  8
LC-005-002-RND-0
 62
     2
  6
DASHDOT
 10
286.670563
 20
248.661667
 11
431.844269
 21
248.661667
  0
LINE
  8
LC-003-002-----0
 62
     1
  6
CONTINUOUS
 10
308.914612
 20
278.661652
 11
355.414612
 21
278.661652
  0
LINE
  8
LC-003-002-----0
 62
     1
  6
CONTINUOUS
 10
308.914612
 20
218.661667
 11
355.414612
 21
218.661667
  0
LINE
  8
LC-003-002-----0
 62
     1
  6
CONTINUOUS
 10
394.664612
 20
293.661652
 11
406.164612
 21
293.661652
  0
LINE
  8
LC-003-002-----0
 62
     1
  6
CONTINUOUS
 10
406.164612
 20
203.661667
 11
394.664612
 21
203.661667
  0
LINE
  8
LC-003-002-----0
 62
     1
  6
CONTINUOUS
 10
307.414612
 20
277.161652
 11
307.414612
 21
220.161682
  0
LINE
  8
LC-003-002-----0
 62
     1
  6
CONTINUOUS
 10
407.414612
 20
292.411652
 11
407.414612
 21
204.911682
  0
LINE
  8
LC-003-002-----0
 62
     1
  6
CONTINUOUS
 10
393.414612
 20
204.911667
 11
393.414612
 21
292.411652
  0
LINE
  8
LC-003-002-----0
 62
     1
  6
CONTINUOUS
 10
391.914612
 20
278.661652
 11
391.914612
 21
218.661682
  0
LINE
  8
LC-003-002-----0
 62
     1
  6
CONTINUOUS
 10
391.914612
 20
277.411652
 11
393.414612
 21
277.411652
  0
LINE
  8
LC-003-002-----0
 62
     1
  6
CONTINUOUS
 10
391.914612
 20
219.911667
 11
393.414612
 21
219.911667
  0
ARC
  8
LC-003-002-----0
 62
     1
  6
CONTINUOUS
 10
308.914612
 20
277.161652
 40
1.500000
 50
90.000003
 51
180.000009
  0
ARC
  8
LC-003-002-----0
 62
     1
  6
CONTINUOUS
 10
308.914612
 20
220.161667
 40
1.500000
 50
180.000009
 51
269.999997
  0
LINE
  8
LC-003-002-----0
 62
     1
  6
CONTINUOUS
 10
394.664612
 20
203.661667
 11
393.414612
 21
204.911667
  0
LINE
  8
LC-003-002-----0
 62
     1
  6
CONTINUOUS
 10
393.414612
 20
292.411652
 11
394.664612
 21
293.661652
  0
LINE
  8
LC-003-002-----0
 62
     1
  6
CONTINUOUS
 10
394.664612
 20
203.661667
 11
394.664612
 21
293.661652
  0
LINE
  8
LC-003-002-----0
 62
     1
  6
CONTINUOUS
 10
406.164612
 20
293.661652
 11
407.414612
 21
292.411652
  0
LINE
  8
LC-003-002-----0
 62
     1
  6
CONTINUOUS
 10
407.414612
 20
204.911667
 11
406.164612
 21
203.661667
  0
LINE
  8
LC-003-002-----0
 62
     1
  6
CONTINUOUS
 10
406.164612
 20
293.661652
 11
406.164612
 21
203.661682
  0
LINE
  8
LC-005-002-RND-0
 62
     2
  6
DASHDOT
 10
357.414612
 20
216.661667
 11
357.414612
 21
280.661652
  0
LINE
  8
LC-003-002-----0
 62
     1
  6
CONTINUOUS
 10
359.414612
 20
218.661667
 11
359.414612
 21
278.661652
  0
LINE
  8
LC-003-002-----0
 62
     1
  6
CONTINUOUS
 10
355.414612
 20
218.661667
 11
355.414612
 21
278.661652
  0
ARC
  8
LC-003-002-----0
 62
     1
  6
CONTINUOUS
 10
357.414612
 20
218.661667
 40
2.000000
 50
0.000000
 51
180.000009
  0
ARC
  8
LC-003-002-----0
 62
     1
  6
CONTINUOUS
 10
357.414612
 20
278.661652
 40
2.000000
 50
180.000009
 51
0.000000
  0
LINE
  8
LC-003-002-----0
 62
     1
  6
CONTINUOUS
 10
359.414612
 20
278.661652
 11
391.914612
 21
278.661652
  0
LINE
  8
LC-003-002-----0
 62
     1
  6
CONTINUOUS
 10
359.414612
 20
218.661667
 11
391.914612
 21
218.661667
  0
LINE
  8
LC-003-002-----0
 62
     1
  6
CONTINUOUS
 10
290.064362
 20
267.361664
 11
307.414612
 21
267.361664
  0
LINE
  8
LC-003-002-----0
 62
     1
  6
CONTINUOUS
 10
289.018738
 20
229.961670
 11
307.414612
 21
229.961670
  0
LINE
  8
LC-006-012-----0
 62
     2
  6
CONTINUOUS
 10
289.018738
 20
229.961670
 11
289.783783
 21
235.729706
  0
LINE
  8
LC-006-012-----0
 62
     2
  6
CONTINUOUS
 10
289.783783
 20
235.729706
 11
289.128357
 21
245.612534
  0
LINE
  8
LC-006-012-----0
 62
     2
  6
CONTINUOUS
 10
289.128357
 20
245.612534
 11
290.275330
 21
257.101318
  0
LINE
  8
LC-006-012-----0
 62
     2
  6
CONTINUOUS
 10
290.275330
 20
257.101318
 11
290.064362
 21
267.361664
  0
LINE
  8
LC-006-012-----0
 62
     2
  6
CONTINUOUS
 10
427.724854
 20
229.961670
 11
428.403351
 21
236.100311
  0
LINE
  8
LC-006-012-----0
 62
     2
  6
CONTINUOUS
 10
428.403351
 20
236.100311
 11
427.911804
 21
245.612534
  0
LINE
  8
LC-006-012-----0
 62
     2
  6
CONTINUOUS
 10
427.911804
 20
245.612534
 11
429.058777
 21
258.954346
  0
LINE
  8
LC-006-012-----0
 62
     2
  6
CONTINUOUS
 10
429.058777
 20
258.954346
 11
428.262268
 21
267.361664
  0
LINE
  8
LC-004-006-----0
 62
     2
  6
DASHED
 10
307.414612
 20
267.361664
 11
428.262268
 21
267.361664
  0
LINE
  8
LC-003-002-----0
 62
     1
  6
CONTINUOUS
 10
407.414612
 20
267.361664
 11
428.262268
 21
267.361664
  0
LINE
  8
LC-004-006-----0
 62
     2
  6
DASHED
 10
307.414612
 20
229.961670
 11
407.414612
 21
229.961670
  0
LINE
  8
LC-003-002-----0
 62
     1
  6
CONTINUOUS
 10
407.414612
 20
229.961670
 11
427.724854
 21
229.961670
  0
LINE
  8
LC-005-002-RND-0
 62
     2
  6
DASHDOT
 10
459.975647
 20
248.661667
 11
557.733643
 21
248.661667
  0
LINE
  8
LC-005-002-RND-0
 62
     2
  6
DASHDOT
 10
508.385376
 20
296.874023
 11
508.385376
 21
199.626083
  0
ARC
  8
LC-003-002-----0
 62
     1
  6
CONTINUOUS
 10
508.385376
 20
248.661667
 40
18.700001
 50
85.166763
 51
94.833236
  0
CIRCLE
  8
LC-003-002-----0
 62
     1
  6
CONTINUOUS
 10
508.385376
 20
248.661667
 40
30.000000
  0
CIRCLE
  8
LC-003-002-----0
 62
     1
  6
CONTINUOUS
 10
508.385376
 20
248.661667
 40
45.000000
  0
CIRCLE
  8
LC-005-002-RND-0
 62
     2
  6
DASHDOT
 10
508.385376
 20
248.661667
 40
36.000000
  0
CIRCLE
  8
LC-003-002-----0
 62
     1
  6
CONTINUOUS
 10
508.385376
 20
248.661667
 40
43.750000
  0
CIRCLE
  8
LC-004-006-----0
 62
     2
  6
DASHED
 10
508.385376
 20
284.661652
 40
7.500000
  0
CIRCLE
  8
LC-003-002-----0
 62
     1
  6
CONTINUOUS
 10
508.385376
 20
284.661652
 40
4.500000
  0
CIRCLE
  8
LC-004-006-----0
 62
     2
  6
DASHED
 10
472.385376
 20
248.661667
 40
7.500000
  0
CIRCLE
  8
LC-003-002-----0
 62
     1
  6
CONTINUOUS
 10
472.385376
 20
248.661667
 40
4.500000
  0
CIRCLE
  8
LC-004-006-----0
 62
     2
  6
DASHED
 10
508.385376
 20
212.661667
 40
7.500000
  0
CIRCLE
  8
LC-003-002-----0
 62
     1
  6
CONTINUOUS
 10
508.385376
 20
212.661667
 40
4.500000
  0
CIRCLE
  8
LC-004-006-----0
 62
     2
  6
DASHED
 10
544.385376
 20
248.661667
 40
7.500000
  0
CIRCLE
  8
LC-003-002-----0
 62
     1
  6
CONTINUOUS
 10
544.385376
 20
248.661667
 40
4.500000
  0
LINE
  8
LC-005-002-RND-0
 62
     2
  6
DASHDOT
 10
411.570709
 20
284.661652
 11
389.458771
 21
284.661652
  0
LINE
  8
LC-004-006-----0
 62
     2
  6
DASHED
 10
398.414612
 20
289.161652
 11
393.414612
 21
289.161652
  0
LINE
  8
LC-004-006-----0
 62
     2
  6
DASHED
 10
407.414612
 20
292.161652
 11
398.414612
 21
292.161652
  0
LINE
  8
LC-004-006-----0
 62
     2
  6
DASHED
 10
398.414612
 20
292.161652
 11
398.414612
 21
277.161652
  0
LINE
  8
LC-004-006-----0
 62
     2
  6
DASHED
 10
407.414612
 20
277.161652
 11
398.414612
 21
277.161652
  0
LINE
  8
LC-004-006-----0
 62
     2
  6
DASHED
 10
398.414612
 20
280.161652
 11
393.414612
 21
280.161652
  0
LINE
  8
LC-005-002-RND-0
 62
     2
  6
DASHDOT
 10
411.570709
 20
212.661667
 11
389.458771
 21
212.661667
  0
LINE
  8
LC-004-006-----0
 62
     2
  6
DASHED
 10
398.414612
 20
208.161667
 11
393.414612
 21
208.161667
  0
LINE
  8
LC-004-006-----0
 62
     2
  6
DASHED
 10
407.414612
 20
205.161667
 11
398.414612
 21
205.161667
  0
LINE
  8
LC-004-006-----0
 62
     2
  6
DASHED
 10
398.414612
 20
205.161667
 11
398.414612
 21
220.161667
  0
LINE
  8
LC-004-006-----0
 62
     2
  6
DASHED
 10
407.414612
 20
220.161667
 11
398.414612
 21
220.161667
  0
LINE
  8
LC-004-006-----0
 62
     2
  6
DASHED
 10
398.414612
 20
217.161667
 11
393.414612
 21
217.161667
  0
LINE
  8
LC-004-006-----0
 62
     2
  6
DASHED
 10
398.414612
 20
256.161652
 11
398.414612
 21
241.161682
  0
LINE
  8
LC-004-006-----0
 62
     2
  6
DASHED
 10
407.414612
 20
241.161667
 11
398.414612
 21
241.161667
  0
LINE
  8
LC-004-006-----0
 62
     2
  6
DASHED
 10
398.414612
 20
244.161667
 11
393.414612
 21
244.161667
  0
LINE
  8
LC-004-006-----0
 62
     2
  6
DASHED
 10
407.414612
 20
256.161652
 11
398.414612
 21
256.161652
  0
LINE
  8
LC-004-006-----0
 62
     2
  6
DASHED
 10
398.414612
 20
253.161667
 11
393.414612
 21
253.161667
  0
ARC
  8
LC-003-002-----0
 62
     1
  6
CONTINUOUS
 10
511.702057
 20
267.471497
 40
1.750000
 50
185.782693
 51
334.217310
  0
LINE
  8
LC-005-002-RND-0
 62
     2
  6
DASHDOT
 10
511.130371
 20
264.229309
 11
511.961609
 21
268.943390
  0
ARC
  8
LC-003-002-----0
 62
     1
  6
CONTINUOUS
 10
505.068695
 20
267.471497
 40
1.750000
 50
205.782689
 51
354.217310
  0
LINE
  8
LC-005-002-RND-0
 62
     2
  6
DASHDOT
 10
505.640381
 20
264.229309
 11
504.809174
 21
268.943390
  0
ARC
  8
LC-003-002-----0
 62
     1
  6
CONTINUOUS
 10
511.702057
 20
229.851837
 40
1.750000
 50
25.782690
 51
174.217307
  0
LINE
  8
LC-005-002-RND-0
 62
     2
  6
DASHDOT
 10
511.130371
 20
233.094009
 11
511.961609
 21
228.379944
  0
ARC
  8
LC-003-002-----0
 62
     1
  6
CONTINUOUS
 10
505.068695
 20
229.851837
 40
1.750000
 50
5.782690
 51
154.217311
  0
LINE
  8
LC-005-002-RND-0
 62
     2
  6
DASHDOT
 10
505.640381
 20
233.094009
 11
504.809174
 21
228.379944
  0
ARC
  8
LC-003-002-----0
 62
     1
  6
CONTINUOUS
 10
508.385376
 20
248.661667
 40
18.700001
 50
105.166765
 51
254.833235
  0
ARC
  8
LC-003-002-----0
 62
     1
  6
CONTINUOUS
 10
508.385376
 20
248.661667
 40
18.700001
 50
265.166764
 51
274.833237
  0
ARC
  8
LC-003-002-----0
 62
     1
  6
CONTINUOUS
 10
508.385376
 20
248.661667
 40
18.700001
 50
285.166760
 51
74.833240
  0
LINE
  8
LC-003-002-----0
 62
     1
  6
CONTINUOUS
 10
428.323975
 20
266.710327
 11
407.414612
 21
266.710327
  0
ARC
  8
LC-003-002-----0
 62
     1
  6
CONTINUOUS
 10
508.385376
 20
248.661667
 40
19.200001
 50
103.728614
 51
256.271386
  0
ARC
  8
LC-003-002-----0
 62
     1
  6
CONTINUOUS
 10
505.068695
 20
229.851837
 40
1.250000
 50
347.278177
 51
172.721824
  0
ARC
  8
LC-003-002-----0
 62
     1
  6
CONTINUOUS
 10
508.385376
 20
248.661667
 40
19.200001
 50
263.728620
 51
276.271382
  0
ARC
  8
LC-003-002-----0
 62
     1
  6
CONTINUOUS
 10
511.702057
 20
229.851837
 40
1.250000
 50
7.278177
 51
192.721823
  0
ARC
  8
LC-003-002-----0
 62
     1
  6
CONTINUOUS
 10
508.385376
 20
248.661667
 40
19.200001
 50
283.728616
 51
76.271384
  0
ARC
  8
LC-003-002-----0
 62
     1
  6
CONTINUOUS
 10
511.702057
 20
267.471497
 40
1.250000
 50
167.278177
 51
352.721823
  0
ARC
  8
LC-003-002-----0
 62
     1
  6
CONTINUOUS
 10
508.385376
 20
248.661667
 40
19.200001
 50
83.728618
 51
96.271380
  0
ARC
  8
LC-003-002-----0
 62
     1
  6
CONTINUOUS
 10
505.068695
 20
267.471497
 40
1.250000
 50
187.278176
 51
12.721823
  0
LINE
  8
LC-004-006-----0
 62
     2
  6
DASHED
 10
407.414612
 20
266.710327
 11
307.414612
 21
266.710327
  0
LINE
  8
LC-003-002-----0
 62
     1
  6
CONTINUOUS
 10
307.414612
 20
266.710327
 11
290.077728
 21
266.710327
  0
LINE
  8
LC-004-006-----0
 62
     2
  6
DASHED
 10
407.414612
 20
230.613022
 11
307.414612
 21
230.613022
  0
LINE
  8
LC-003-002-----0
 62
     1
  6
CONTINUOUS
 10
307.414612
 20
230.613022
 11
289.105133
 21
230.613022
  0
LINE
  8
LC-003-002-----0
 62
     1
  6
CONTINUOUS
 10
427.796844
 20
230.613022
 11
407.414612
 21
230.613022
  0
CIRCLE
  8
LC-003-002-----0
 62
     1
  6
CONTINUOUS
 10
357.414612
 20
248.661667
 40
2.000000
  0
ENDSEC
  0
EOF
