  0
SECTION
  2
HEADER
  9
$ACADVER
  1
AC1014
  9
$ACADMAINTVER
 70
           0
  9
$DWGCODEPAGE
  3
DOS850
  9
$INSBASE
 10
0.0
 20
0.0
 30
0.0
  9
$EXTMIN
 10
-50.336784
 20
133.947443299763
 30
0.0
  9
$EXTMAX
 10
141.596201182312
 20
210.488839471057
 30
0.0
  9
$LIMMIN
 10
-50.336784
 20
133.947443299763
  9
$LIMMAX
 10
141.596201182312
 20
210.488839471057
  9
$ORTHOMODE
 70
           0
  9
$REGENMODE
 70
           1
  9
$FILLMODE
 70
           1
  9
$QTEXTMODE
 70
           0
  9
$MIRRTEXT
 70
           1
  9
$DRAGMODE
 70
           2
  9
$LTSCALE
 40
5.0
  9
$OSMODE
 70
           0
  9
$ATTMODE
 70
           1
  9
$TEXTSIZE
 40
0.2
  9
$TRACEWID
 40
0.05
  9
$TEXTSTYLE
  7
TXT
  9
$CLAYER
  8
0
  9
$CELTYPE
  6
CONTINUOUS
  9
$CECOLOR
 62
         256
  9
$CELTSCALE
 40
1.0
  9
$DELOBJ
 70
           1
  9
$DISPSILH
 70
           0
  9
$DIMSCALE
 40
1.0
  9
$DIMASZ
 40
3.5
  9
$DIMEXO
 40
0.0625
  9
$DIMDLI
 40
0.38
  9
$DIMRND
 40
0.0
  9
$DIMDLE
 40
0.0
  9
$DIMEXE
 40
0.18
  9
$DIMTP
 40
0.0
  9
$DIMTM
 40
0.0
  9
$DIMTXT
 40
3.5
  9
$DIMCEN
 40
0.09
  9
$DIMTSZ
 40
0.0
  9
$DIMTOL
 70
           0
  9
$DIMLIM
 70
           0
  9
$DIMTIH
 70
           1
  9
$DIMTOH
 70
           1
  9
$DIMSE1
 70
           0
  9
$DIMSE2
 70
           0
  9
$DIMTAD
 70
           0
  9
$DIMZIN
 70
           0
  9
$DIMBLK
  1

  9
$DIMASO
 70
           1
  9
$DIMSHO
 70
           1
  9
$DIMPOST
  1

  9
$DIMAPOST
  1

  9
$DIMALT
 70
           0
  9
$DIMALTD
 70
           2
  9
$DIMALTF
 40
25.4
  9
$DIMLFAC
 40
1.0
  9
$DIMTOFL
 70
           0
  9
$DIMTVP
 40
0.0
  9
$DIMTIX
 70
           0
  9
$DIMSOXD
 70
           0
  9
$DIMSAH
 70
           0
  9
$DIMBLK1
  1

  9
$DIMBLK2
  1

  9
$DIMSTYLE
  2
STANDARD
  9
$DIMCLRD
 70
           0
  9
$DIMCLRE
 70
           0
  9
$DIMCLRT
 70
           0
  9
$DIMTFAC
 40
1.0
  9
$DIMGAP
 40
0.09
  9
$DIMJUST
 70
           0
  9
$DIMSD1
 70
           0
  9
$DIMSD2
 70
           0
  9
$DIMTOLJ
 70
           1
  9
$DIMTZIN
 70
           0
  9
$DIMALTZ
 70
           0
  9
$DIMALTTZ
 70
           0
  9
$DIMFIT
 70
           3
  9
$DIMUPT
 70
           0
  9
$DIMUNIT
 70
           2
  9
$DIMDEC
 70
           4
  9
$DIMTDEC
 70
           4
  9
$DIMALTU
 70
           2
  9
$DIMALTTD
 70
           2
  9
$DIMTXSTY
  7
TXT
  9
$DIMAUNIT
 70
           0
  9
$LUNITS
 70
           2
  9
$LUPREC
 70
           2
  9
$SKETCHINC
 40
0.1
  9
$FILLETRAD
 40
0.0
  9
$AUNITS
 70
           0
  9
$AUPREC
 70
           2
  9
$MENU
  1
acad
  9
$ELEVATION
 40
0.0
  9
$PELEVATION
 40
0.0
  9
$THICKNESS
 40
0.0
  9
$LIMCHECK
 70
           0
  9
$BLIPMODE
 70
           1
  9
$CHAMFERA
 40
0.0
  9
$CHAMFERB
 40
0.0
  9
$CHAMFERC
 40
0.0
  9
$CHAMFERD
 40
0.0
  9
$SKPOLY
 70
           0
  9
$TDCREATE
 40
0.000000000
  9
$TDUPDATE
 40
0.000000000
  9
$TDINDWG
 40
0.0000000000
  9
$TDUSRTIMER
 40
0.0000000000
  9
$USRTIMER
 70
           1
  9
$ANGBASE
 50
0.0
  9
$ANGDIR
 70
           0
  9
$PDMODE
 70
           2
  9
$PDSIZE
 40
0.5
  9
$PLINEWID
 40
0.0
  9
$COORDS
 70
           0
  9
$SPLFRAME
 70
           0
  9
$SPLINETYPE
 70
           6
  9
$SPLINESEGS
 70
           8
  9
$ATTDIA
 70
           0
  9
$ATTREQ
 70
           1
  9
$HANDLING
 70
           1
  9
$HANDSEED
  5
BB
  9
$SURFTAB1
 70
           6
  9
$SURFTAB2
 70
           6
  9
$SURFTYPE
 70
           6
  9
$SURFU
 70
           6
  9
$SURFV
 70
           6
  9
$UCSNAME
  2

  9
$UCSORG
 10
0.0
 20
0.0
 30
0.0
  9
$UCSXDIR
 10
1.0
 20
0.0
 30
0.0
  9
$UCSYDIR
 10
0.0
 20
1.0
 30
0.0
  9
$PUCSNAME
  2

  9
$PUCSORG
 10
0.0
 20
0.0
 30
0.0
  9
$PUCSXDIR
 10
1.0
 20
0.0
 30
0.0
  9
$PUCSYDIR
 10
0.0
 20
1.0
 30
0.0
  9
$USERI1
 70
           0
  9
$USERI2
 70
           0
  9
$USERI3
 70
           0
  9
$USERI4
 70
           0
  9
$USERI5
 70
           0
  9
$USERR1
 40
0.0
  9
$USERR2
 40
0.0
  9
$USERR3
 40
0.0
  9
$USERR4
 40
0.0
  9
$USERR5
 40
0.0
  9
$WORLDVIEW
 70
           1
  9
$SHADEDGE
 70
           3
  9
$SHADEDIF
 70
          70
  9
$TILEMODE
 70
           1
  9
$MAXACTVP
 70
          16
  9
$PINSBASE
 10
0.0
 20
0.0
 30
0.0
  9
$PLIMCHECK
 70
           0
  9
$PEXTMIN
 10
1.000000000000E+20
 20
1.000000000000E+20
 30
1.000000000000E+20
  9
$PEXTMAX
 10
-1.000000000000E+20
 20
-1.000000000000E+20
 30
-1.000000000000E+20
  9
$PLIMMIN
 10
0.0
 20
0.0
  9
$PLIMMAX
 10
12.0
 20
9.0
  9
$UNITMODE
 70
           0
  9
$VISRETAIN
 70
           0
  9
$PLINEGEN
 70
           1
  9
$PSLTSCALE
 70
           0
  9
$TREEDEPTH
 70
        3020
  9
$PICKSTYLE
 70
           1
  9
$CMLSTYLE
  2
STANDARD
  9
$CMLJUST
 70
           0
  9
$CMLSCALE
 40
1.0
  9
$PROXYGRAPHICS
 70
           0
  9
$MEASUREMENT
 70
           0
  0
ENDSEC
  0
SECTION
  2
CLASSES
  0
CLASS
  1
LWPOLYLINE
  2
AcDbPolyline
  3
"AutoCAD"
 90
        0
280
           0
281
           1
  0
CLASS
  1
IMAGE
  2
AcDbRasterImage
  3
ISM
 90
      127
280
           0
281
           1
  0
CLASS
  1
OLE2FRAME
  2
AcDbOle2Frame
  3
""
 90
        0
280
           0
281
           1
  0
CLASS
  1
HATCH
  2
AcDbHatch
  3
"ACAD_SEDONA"
 90
        0
280
           0
281
           1
  0
CLASS
  1
DICTIONARYVAR
  2
AcDbDictionaryVar
  3
"AutoCAD"
 90
        0
280
           0
281
           0
  0
CLASS
  1
RASTERVARIABLES
  2
AcDbRasterVariables
  3
ISM
 90
        0
280
           0
281
           0
  0
CLASS
  1
IMAGEDEF
  2
AcDbRasterImageDef
  3
ISM
 90
        0
280
           0
281
           0
  0
CLASS
  1
IMAGEDEF_REACTOR
  2
AcDbRasterImageDefReactor
  3
ISM
 90
        1
280
           0
281
           0
  0
CLASS
  1
IDBUFFER
  2
AcDbIdBuffer
  3
"Acad"
 90
        0
280
           0
281
           0
  0
CLASS
  1
SPATIAL_FILTER
  2
AcDbSpatialFilter
  3
"Acad"
 90
        0
280
           0
281
           0
  0
CLASS
  1
XRECORD
  2
AcDbXrecord
  3
"<Built In>"
 90
        0
280
           0
281
           0
  0
CLASS
  1
SORTENTSTABLE
  2
AcDbSortentsTable
  3
"AutoCAD"
 90
        0
280
           0
281
           0
  0
CLASS
  1
LAYER_INDEX
  2
AcDbLayerIndex
  3
"Acad"
 90
        0
280
           0
281
           0
  0
CLASS
  1
SPATIAL_INDEX
  2
AcDbSpatialIndex
  3
"Acad"
 90
        0
280
           0
281
           0
  0
CLASS
  1
OBJECT_PTR
  2
CAseDLPNTableRecord
  3
"ASE-LPNTableRecord"
 90
        1
280
           0
281
           0
  0
CLASS
  1
LAYOUT
  2
AcDbLayout
  3
"AutoCAD 2000"
 90
        1
280
           0
281
           0
  0
CLASS
  1
PLOTSETTINGS
  2
AcDbPlotSettings
  3
"AutoCAD 2000"
 90
        1
280
           0
281
           0
  0
CLASS
  1
ACDBDICTIONARYWDFLT
  2
AcDbDictionaryWithDefault
  3
"AutoCAD 2000"
 90
        1
280
           0
281
           0
  0
CLASS
  1
ACDBPLACEHOLDER
  2
AcDbPlaceHolder
  3
"AutoCAD 2000"
 90
        1
280
           0
281
           0
  0
CLASS
  1
VBA_PROJECT
  2
AcDbVbaProject
  3
"acadvba"
 90
        1
280
           0
281
           0
  0
CLASS
  1
WIPEOUT
  2
AcDbWipeout
  3
WipeOut|AutoCAD Express Tool|expresstools@autodesk.com
 90
      127
280
           0
281
           1
  0
CLASS
  1
WIPEOUTVARIABLES
  2
AcDbWipeoutVariables
  3
WipeOut|AutoCAD Express Tool|expresstools@autodesk.com
 90
        0
280
           0
281
           0
  0
CLASS
  1
RTEXT
  2
RText
  3
RText|AutoCAD Express Tool|expresstools@autodesk.com
 90
        0
280
           0
281
           1
  0
CLASS
  1
ARCALIGNEDTEXT
  2
AcDbArcAlignedText
  3
ATEXT|AutoCAD Express Tool|expresstools@autodesk.com
 90
        0
280
           0
281
           1
  0
ENDSEC
  0
SECTION
  2
TABLES
  0
TABLE
  2
VPORT
  5
7
100
AcDbSymbolTable
 70
           1
  0
VPORT
  5
15
100
AcDbSymbolTableRecord
100
AcDbViewportTableRecord
  2
*ACTIVE
 70
           0
 10
0.0
 20
0.0
 11
1.0
 21
1.0
 12
6.591288
 22
4.579184
 13
0.0
 23
0.0
 14
1.0
 24
1.0
 15
0.0
 25
0.0
 16
0.0
 26
0.0
 36
1.0
 17
0.0
 27
0.0
 37
0.0
 40
9.158369
 41
0.688564
 42
50.0
 43
0.0
 44
0.0
 50
0.0
 51
0.0
 71
           0
 72
         100
 73
           1
 74
           1
 75
           0
 76
           0
 77
           0
 78
           0
  0
ENDTAB
  0
TABLE
  2
LTYPE
  5
4
100
AcDbSymbolTable
 70
           6
  0
LTYPE
  5
11
100
AcDbSymbolTableRecord
100
AcDbLinetypeTableRecord
  2
BYBLOCK
 70
          64
  3

 72
          65
 73
           0
 40
0.0
  0
LTYPE
  5
12
100
AcDbSymbolTableRecord
100
AcDbLinetypeTableRecord
  2
BYLAYER
 70
          64
  3

 72
          65
 73
           0
 40
0.0
  0
LTYPE
  5
13
100
AcDbSymbolTableRecord
100
AcDbLinetypeTableRecord
  2
CONTINUOUS
 70
          64
  3
Solid line
 72
          65
 73
           0
 40
0.0
  0
LTYPE
  5
1D
100
AcDbSymbolTableRecord
100
AcDbLinetypeTableRecord
  2
AUSGEZOGEN
 70
           0
  3

 72
          65
 73
           2
 40
0.5
 49
0.25
 74
           0
 49
-0.25
 74
           0
  0
LTYPE
  5
1E
100
AcDbSymbolTableRecord
100
AcDbLinetypeTableRecord
  2
STRICHLINIE
 70
           0
  3

 72
          65
 73
           2
 40
0.5
 49
0.25
 74
           0
 49
-0.25
 74
           0
  0
LTYPE
  5
1F
100
AcDbSymbolTableRecord
100
AcDbLinetypeTableRecord
  2
STRICHPUNKT
 70
           0
  3

 72
          65
 73
           4
 40
1.0
 49
0.5
 74
           0
 49
-0.25
 74
           0
 49
0.0
 74
           0
 49
-0.25
 74
           0
  0
ENDTAB
  0
TABLE
  2
LAYER
  5
2
100
AcDbSymbolTable
 70
           5
  0
LAYER
  5
14
100
AcDbSymbolTableRecord
100
AcDbLayerTableRecord
  2
0
 70
           0
 62
           7
  6
CONTINUOUS
  0
LAYER
  5
20
100
AcDbSymbolTableRecord
100
AcDbLayerTableRecord
  2
LC-003-002-----0
 70
           0
 62
           7
  6
CONTINUOUS
  0
LAYER
  5
21
100
AcDbSymbolTableRecord
100
AcDbLayerTableRecord
  2
LC-005-002-RND-0
 70
           0
 62
           7
  6
CONTINUOUS
  0
LAYER
  5
22
100
AcDbSymbolTableRecord
100
AcDbLayerTableRecord
  2
LC-004-006-----0
 70
           0
 62
           7
  6
CONTINUOUS
  0
LAYER
  5
23
100
AcDbSymbolTableRecord
100
AcDbLayerTableRecord
  2
LC-006-012-----0
 70
           0
 62
           7
  6
CONTINUOUS
  0
ENDTAB
  0
TABLE
  2
STYLE
  5
3
100
AcDbSymbolTable
 70
           1
  0
STYLE
  5
17
100
AcDbSymbolTableRecord
100
AcDbTextStyleTableRecord
  2
TXT
 70
           0
 40
3.5
 41
1.0
 50
0.0
 71
           0
 42
3.5
  3
TXT
  4

  0
ENDTAB
  0
TABLE
  2
VIEW
  5
5
100
AcDbSymbolTable
 70
           0
  0
ENDTAB
  0
TABLE
  2
UCS
  5
6
100
AcDbSymbolTable
 70
           0
  0
ENDTAB
  0
TABLE
  2
APPID
  5
8
100
AcDbSymbolTable
 70
           2
  0
APPID
  5
16
100
AcDbSymbolTableRecord
100
AcDbRegAppTableRecord
  2
ACAD
 70
           0
  0
APPID
  5
24
100
AcDbSymbolTableRecord
100
AcDbRegAppTableRecord
  2
MegaCADPntStyle
 70
           0
  0
ENDTAB
  0
TABLE
  2
DIMSTYLE
  5
9
100
AcDbSymbolTable
 70
           1
  0
DIMSTYLE
105
18
100
AcDbSymbolTableRecord
100
AcDbDimStyleTableRecord
  2
STANDARD
 70
           0
  3

  4

  5

  6

  7

 40
1.0
 41
0.18
 42
0.0625
 43
0.38
 44
0.18
 45
0.0
 46
0.0
 47
0.0
 48
0.0
 71
           0
 72
           0
 73
           1
 74
           1
 75
           0
 76
           0
 77
           0
 78
           0
140
0.18
141
0.09
142
0.0
143
25.4
144
1.0
145
0.0
146
1.0
147
0.09
170
           0
171
           2
172
           0
173
           0
174
           0
175
           0
176
           0
177
           0
178
           0
270
           2
271
           4
272
           4
273
           2
274
           2
275
           0
280
           0
281
           0
282
           0
283
           1
284
           0
285
           0
286
           0
287
           0
288
           0
340
17
  0
ENDTAB
  0
TABLE
  2
BLOCK_RECORD
  5
1
100
AcDbSymbolTable
 70
           2
  0
BLOCK_RECORD
  5
A
100
AcDbSymbolTableRecord
100
AcDbBlockTableRecord
  2
*MODEL_SPACE
  0
BLOCK_RECORD
  5
B
100
AcDbSymbolTableRecord
100
AcDbBlockTableRecord
  2
*PAPER_SPACE
  0
BLOCK_RECORD
  5
25
102
{ACAD_XDICTIONARY
360
5C
102
}
100
AcDbSymbolTableRecord
100
AcDbBlockTableRecord
  2
ELIPPSE
  0
BLOCK_RECORD
  5
26
102
{ACAD_XDICTIONARY
360
5C
102
}
100
AcDbSymbolTableRecord
100
AcDbBlockTableRecord
  2
*X1
  0
ENDTAB
  0
ENDSEC
  0
SECTION
  2
BLOCKS
  0
BLOCK
  5
D
100
AcDbEntity
  8
0
100
AcDbBlockBegin
  2
*MODEL_SPACE
 70
           0
 10
0.0
 20
0.0
 30
0.0
  3
*MODEL_SPACE
  1

  0
ENDBLK
  5
E
100
AcDbEntity
  8
0
100
AcDbBlockEnd
  0
BLOCK
  5
F
100
AcDbEntity
 67
           1
  8
0
100
AcDbBlockBegin
  2
*PAPER_SPACE
 70
           0
 10
0.0
 20
0.0
 30
0.0
  3
*PAPER_SPACE
  1

  0
ENDBLK
  5
10
100
AcDbEntity
 67
           1
  8
0
100
AcDbBlockEnd
  0
BLOCK
  5
A2
100
AcDbEntity
  8
0
100
AcDbBlockBegin
  2
ELIPPSE
 70
          64
 10
0.0
 20
0.0
 30
0.0
  3
ELIPPSE
  1

  0
CIRCLE
  5
A3
100
AcDbEntity
  8
0
  6
BYBLOCK
 62
           0
100
AcDbCircle
 10
0.0
 20
0.0
 30
0.0
 40
1.0
  0
ENDBLK
  5
A4
100
AcDbEntity
  8
0
  6
BYBLOCK
 62
           0
100
AcDbBlockEnd
  0
BLOCK
  5
A5
100
AcDbEntity
  8
0
100
AcDbBlockBegin
  2
*X1
 70
          65
 10
0.0
 20
0.0
 30
0.0
  3
*X1
  1

  0
LINE
  5
A6
100
AcDbEntity
  8
0
  6
BYBLOCK
 62
           0
100
AcDbLine
 10
19.457482914263
 20
184.920469711915
 30
0.0
 11
21.349911
 21
186.812897797652
 31
0.0
  0
LINE
  5
A7
100
AcDbEntity
  8
0
  6
BYBLOCK
 62
           0
100
AcDbLine
 10
17.336162570704
 20
184.920469711915
 30
0.0
 11
20.362698858788
 21
187.947006
 31
0.0
  0
LINE
  5
A8
100
AcDbEntity
  8
0
  6
BYBLOCK
 62
           0
100
AcDbLine
 10
20.362698858788
 20
187.947006
 30
0.0
 11
20.862698858788
 21
188.447006
 31
0.0
  0
LINE
  5
A9
100
AcDbEntity
  8
0
  6
BYBLOCK
 62
           0
100
AcDbLine
 10
15.389903770481
 20
185.095531255253
 30
0.0
 11
18.241378515229
 21
187.947006
 31
0.0
  0
LINE
  5
AA
100
AcDbEntity
  8
0
  6
BYBLOCK
 62
           0
100
AcDbLine
 10
18.241378515229
 20
187.947006
 30
0.0
 11
18.741378515229
 21
188.447006
 31
0.0
  0
LINE
  5
AB
100
AcDbEntity
  8
0
  6
BYBLOCK
 62
           0
100
AcDbLine
 10
13.452424712581
 20
185.279372540912
 30
0.0
 11
16.120058171669
 21
187.947006
 31
0.0
  0
LINE
  5
AC
100
AcDbEntity
  8
0
  6
BYBLOCK
 62
           0
100
AcDbLine
 10
16.120058171669
 20
187.947006
 30
0.0
 11
16.620058171669
 21
188.447006
 31
0.0
  0
LINE
  5
AD
100
AcDbEntity
  8
0
  6
BYBLOCK
 62
           0
100
AcDbLine
 10
19.620058171669
 20
191.447006
 30
0.0
 11
20.120058171669
 21
191.947006
 31
0.0
  0
LINE
  5
AE
100
AcDbEntity
  8
0
  6
BYBLOCK
 62
           0
100
AcDbLine
 10
20.120058171669
 20
191.947006
 30
0.0
 11
20.984984585834
 21
192.811932414166
 31
0.0
  0
LINE
  5
AF
100
AcDbEntity
  8
0
  6
BYBLOCK
 62
           0
100
AcDbLine
 10
12.114465405962
 20
186.062733577853
 30
0.0
 11
14.349911
 21
188.298179171891
 31
0.0
  0
LINE
  5
B0
100
AcDbEntity
  8
0
  6
BYBLOCK
 62
           0
100
AcDbLine
 10
14.349911
 20
188.298179171891
 30
0.0
 11
14.498737828109
 21
188.447006
 31
0.0
  0
LINE
  5
B1
100
AcDbEntity
  8
0
  6
BYBLOCK
 62
           0
100
AcDbLine
 10
17.498737828109
 20
191.447006
 30
0.0
 11
17.998737828109
 21
191.947006
 31
0.0
  0
LINE
  5
B2
100
AcDbEntity
  8
0
  6
BYBLOCK
 62
           0
100
AcDbLine
 10
17.998737828109
 20
191.947006
 30
0.0
 11
18.998737828109
 21
192.947006
 31
0.0
  0
LINE
  5
B3
100
AcDbEntity
  8
0
  6
BYBLOCK
 62
           0
100
AcDbLine
 10
10.874809665916
 20
186.944398181366
 30
0.0
 11
12.37741748455
 21
188.447006
 31
0.0
  0
LINE
  5
B4
100
AcDbEntity
  8
0
  6
BYBLOCK
 62
           0
100
AcDbLine
 10
15.37741748455
 20
191.447006
 30
0.0
 11
15.87741748455
 21
191.947006
 31
0.0
  0
LINE
  5
B5
100
AcDbEntity
  8
0
  6
BYBLOCK
 62
           0
100
AcDbLine
 10
15.87741748455
 20
191.947006
 30
0.0
 11
16.87741748455
 21
192.947006
 31
0.0
  0
LINE
  5
B6
100
AcDbEntity
  8
0
  6
BYBLOCK
 62
           0
100
AcDbLine
 10
10.046285916629
 20
188.237194775639
 30
0.0
 11
10.949547340591
 21
189.140456199601
 31
0.0
  0
LINE
  5
B7
100
AcDbEntity
  8
0
  6
BYBLOCK
 62
           0
100
AcDbLine
 10
13.25609714099
 20
191.447006
 30
0.0
 11
14.75609714099
 21
192.947006
 31
0.0
  0
LINE
  5
B8
100
AcDbEntity
  8
0
  6
BYBLOCK
 62
           0
100
AcDbLine
 10
9.952521486924
 20
190.264750689494
 30
0.0
 11
12.63477679743
 21
192.947006
 31
0.0
  0
LINE
  5
B9
100
AcDbEntity
  8
0
  6
BYBLOCK
 62
           0
100
AcDbLine
 10
10.482370148341
 20
192.915919694471
 30
0.0
 11
10.513456453871
 21
192.947006
 31
0.0
  0
ENDBLK
  5
BA
100
AcDbEntity
  8
0
  6
BYBLOCK
 62
           0
100
AcDbBlockEnd
  0
ENDSEC
  0
SECTION
  2
ENTITIES
  0
LINE
  5
27
100
AcDbEntity
  8
LC-005-002-RND-0
  6
STRICHPUNKT
 62
           2
100
AcDbLine
 10
-50.336784
 20
172.947006
 30
0.0
 11
43.484707
 21
172.947006
 31
0.0
  0
LINE
  5
28
100
AcDbEntity
  8
LC-003-002-----0
  6
AUSGEZOGEN
 62
           1
100
AcDbLine
 10
-37.900089
 20
189.947006
 30
0.0
 11
-4.400089
 21
189.947006
 31
0.0
  0
LINE
  5
29
100
AcDbEntity
  8
LC-003-002-----0
  6
AUSGEZOGEN
 62
           1
100
AcDbLine
 10
-37.900089
 20
155.947006
 30
0.0
 11
-4.400089
 21
155.947006
 31
0.0
  0
LINE
  5
2A
100
AcDbEntity
  8
LC-003-002-----0
  6
AUSGEZOGEN
 62
           1
100
AcDbLine
 10
8.599911
 20
205.947006
 30
0.0
 11
-2.900089
 21
205.947006
 31
0.0
  0
LINE
  5
2B
100
AcDbEntity
  8
LC-003-002-----0
  6
AUSGEZOGEN
 62
           1
100
AcDbLine
 10
8.599911
 20
139.947006
 30
0.0
 11
-2.900089
 21
139.947006
 31
0.0
  0
LINE
  5
2C
100
AcDbEntity
  8
LC-003-002-----0
  6
AUSGEZOGEN
 62
           1
100
AcDbLine
 10
-38.650089
 20
189.197006
 30
0.0
 11
-38.650089
 21
156.697006
 31
0.0
  0
LINE
  5
2D
100
AcDbEntity
  8
LC-003-002-----0
  6
AUSGEZOGEN
 62
           1
100
AcDbLine
 10
9.349911
 20
205.197006
 30
0.0
 11
9.349911
 21
140.697006
 31
0.0
  0
LINE
  5
2E
100
AcDbEntity
  8
LC-003-002-----0
  6
AUSGEZOGEN
 62
           1
100
AcDbLine
 10
-3.650089
 20
140.697006
 30
0.0
 11
-3.650089
 21
205.197006
 31
0.0
  0
LINE
  5
2F
100
AcDbEntity
  8
LC-003-002-----0
  6
AUSGEZOGEN
 62
           1
100
AcDbLine
 10
-4.400089
 20
189.947006
 30
0.0
 11
-4.400089
 21
155.947006
 31
0.0
  0
LINE
  5
30
100
AcDbEntity
  8
LC-003-002-----0
  6
AUSGEZOGEN
 62
           1
100
AcDbLine
 10
-4.400089
 20
189.447006
 30
0.0
 11
-3.650089
 21
189.447006
 31
0.0
  0
LINE
  5
31
100
AcDbEntity
  8
LC-003-002-----0
  6
AUSGEZOGEN
 62
           1
100
AcDbLine
 10
-4.400089
 20
156.447006
 30
0.0
 11
-3.650089
 21
156.447006
 31
0.0
  0
LINE
  5
32
100
AcDbEntity
  8
LC-003-002-----0
  6
AUSGEZOGEN
 62
           1
100
AcDbLine
 10
-3.650089
 20
140.697006
 30
0.0
 11
-2.900089
 21
139.947006
 31
0.0
  0
LINE
  5
33
100
AcDbEntity
  8
LC-003-002-----0
  6
AUSGEZOGEN
 62
           1
100
AcDbLine
 10
-3.650089
 20
205.197006
 30
0.0
 11
-2.900089
 21
205.947006
 31
0.0
  0
LINE
  5
34
100
AcDbEntity
  8
LC-003-002-----0
  6
AUSGEZOGEN
 62
           1
100
AcDbLine
 10
-2.900089
 20
139.947006
 30
0.0
 11
-2.900089
 21
205.947006
 31
0.0
  0
LINE
  5
35
100
AcDbEntity
  8
LC-003-002-----0
  6
AUSGEZOGEN
 62
           1
100
AcDbLine
 10
9.349911
 20
205.197006
 30
0.0
 11
8.599911
 21
205.947006
 31
0.0
  0
LINE
  5
36
100
AcDbEntity
  8
LC-003-002-----0
  6
AUSGEZOGEN
 62
           1
100
AcDbLine
 10
9.349911
 20
140.697006
 30
0.0
 11
8.599911
 21
139.947006
 31
0.0
  0
LINE
  5
37
100
AcDbEntity
  8
LC-003-002-----0
  6
AUSGEZOGEN
 62
           1
100
AcDbLine
 10
8.599911
 20
205.947006
 30
0.0
 11
8.599911
 21
139.947006
 31
0.0
  0
LINE
  5
38
100
AcDbEntity
  8
LC-003-002-----0
  6
AUSGEZOGEN
 62
           1
100
AcDbLine
 10
-49.136059
 20
182.046997
 30
0.0
 11
-38.650089
 21
182.046997
 31
0.0
  0
LINE
  5
39
100
AcDbEntity
  8
LC-003-002-----0
  6
AUSGEZOGEN
 62
           1
100
AcDbLine
 10
-49.192604
 20
163.847
 30
0.0
 11
-38.650087
 21
163.847
 31
0.0
  0
LINE
  5
3A
100
AcDbEntity
  8
LC-006-012-----0
  6
AUSGEZOGEN
 62
           2
100
AcDbLine
 10
41.526146
 20
163.847
 30
0.0
 11
41.69368
 21
168.057709
 31
0.0
  0
LINE
  5
3B
100
AcDbEntity
  8
LC-006-012-----0
  6
AUSGEZOGEN
 62
           2
100
AcDbLine
 10
41.69368
 20
168.057709
 30
0.0
 11
41.059322
 21
177.286728
 31
0.0
  0
LINE
  5
3C
100
AcDbEntity
  8
LC-006-012-----0
  6
AUSGEZOGEN
 62
           2
100
AcDbLine
 10
41.059322
 20
177.286728
 30
0.0
 11
41.245136
 21
182.046997
 31
0.0
  0
LINE
  5
3D
100
AcDbEntity
  8
LC-006-012-----0
  6
AUSGEZOGEN
 62
           2
100
AcDbLine
 10
-49.192604
 20
163.847
 30
0.0
 11
-49.00684
 21
169.062637
 31
0.0
  0
LINE
  5
3E
100
AcDbEntity
  8
LC-006-012-----0
  6
AUSGEZOGEN
 62
           2
100
AcDbLine
 10
-49.00684
 20
169.062637
 30
0.0
 11
-49.567291
 21
177.34584
 31
0.0
  0
LINE
  5
3F
100
AcDbEntity
  8
LC-006-012-----0
  6
AUSGEZOGEN
 62
           2
100
AcDbLine
 10
-49.567291
 20
177.34584
 30
0.0
 11
-49.136059
 21
182.046997
 31
0.0
  0
LINE
  5
40
100
AcDbEntity
  8
LC-004-006-----0
  6
STRICHLINIE
 62
           2
100
AcDbLine
 10
-38.650089
 20
182.046997
 30
0.0
 11
21.349911
 21
182.046997
 31
0.0
  0
LINE
  5
41
100
AcDbEntity
  8
LC-003-002-----0
  6
AUSGEZOGEN
 62
           1
100
AcDbLine
 10
21.349911
 20
182.046997
 30
0.0
 11
41.245136
 21
182.046997
 31
0.0
  0
LINE
  5
42
100
AcDbEntity
  8
LC-004-006-----0
  6
STRICHLINIE
 62
           2
100
AcDbLine
 10
-38.650089
 20
163.847
 30
0.0
 11
21.349911
 21
163.847
 31
0.0
  0
LINE
  5
43
100
AcDbEntity
  8
LC-003-002-----0
  6
AUSGEZOGEN
 62
           1
100
AcDbLine
 10
21.349911
 20
163.847
 30
0.0
 11
41.526146
 21
163.847
 31
0.0
  0
ARC
  5
44
100
AcDbEntity
  8
LC-003-002-----0
  6
AUSGEZOGEN
 62
           1
100
AcDbCircle
 10
-37.900089
 20
189.197006
 30
0.0
 40
0.75
100
AcDbArc
 50
90.000003000001
 51
180.000008999999
  0
ARC
  5
45
100
AcDbEntity
  8
LC-003-002-----0
  6
AUSGEZOGEN
 62
           1
100
AcDbCircle
 10
-37.900089
 20
156.697006
 30
0.0
 40
0.75
100
AcDbArc
 50
180.000008999999
 51
269.999996999999
  0
LINE
  5
46
100
AcDbEntity
  8
LC-005-002-RND-0
  6
STRICHPUNKT
 62
           2
100
AcDbLine
 10
105.37561
 20
210.488839471057
 30
0.0
 11
105.37561
 21
133.947443299763
 31
0.0
  0
LINE
  5
47
100
AcDbEntity
  8
LC-005-002-RND-0
  6
STRICHPUNKT
 62
           2
100
AcDbLine
 10
141.596201182312
 20
172.947006
 30
0.0
 11
68.613543814984
 21
172.947006
 31
0.0
  0
CIRCLE
  5
48
100
AcDbEntity
  8
LC-005-002-RND-0
  6
STRICHPUNKT
 62
           2
100
AcDbCircle
 10
105.37561
 20
172.947006
 30
0.0
 40
17.0
  0
CIRCLE
  5
49
100
AcDbEntity
  8
LC-003-002-----0
  6
AUSGEZOGEN
 62
           1
100
AcDbCircle
 10
105.37561
 20
172.947006
 30
0.0
 40
33.0
  0
CIRCLE
  5
4A
100
AcDbEntity
  8
LC-003-002-----0
  6
AUSGEZOGEN
 62
           1
100
AcDbCircle
 10
105.37561
 20
172.947006
 30
0.0
 40
20.0
  0
ARC
  5
4B
100
AcDbEntity
  8
LC-003-002-----0
  6
AUSGEZOGEN
 62
           1
100
AcDbCircle
 10
105.37561
 20
172.947006
 30
0.0
 40
9.1
100
AcDbArc
 50
349.912230744731
 51
10.087762859163
  0
ARC
  5
4C
100
AcDbEntity
  8
LC-003-002-----0
  6
AUSGEZOGEN
 62
           1
100
AcDbCircle
 10
105.37561
 20
172.947006
 30
0.0
 40
9.1
100
AcDbArc
 50
21.912251144368
 51
158.087798199731
  0
ARC
  5
4D
100
AcDbEntity
  8
LC-003-002-----0
  6
AUSGEZOGEN
 62
           1
100
AcDbCircle
 10
105.37561
 20
172.947006
 30
0.0
 40
9.1
100
AcDbArc
 50
201.912207409532
 51
338.087743246341
  0
ARC
  5
4E
100
AcDbEntity
  8
LC-003-002-----0
  6
AUSGEZOGEN
 62
           1
100
AcDbCircle
 10
105.37561
 20
172.947006
 30
0.0
 40
9.1
100
AcDbArc
 50
169.912219549838
 51
190.087786846274
  0
ARC
  5
4F
100
AcDbEntity
  8
LC-003-002-----0
  6
AUSGEZOGEN
 62
           1
100
AcDbCircle
 10
114.411464082126
 20
175.537996659448
 30
0.0
 40
1.0
100
AcDbArc
 50
126.389747000001
 51
265.610257
  0
LINE
  5
50
100
AcDbEntity
  8
LC-005-002-RND-0
  6
STRICHPUNKT
 62
           2
100
AcDbLine
 10
112.860004991028
 20
175.09312296016
 30
0.0
 11
115.353373192687
 21
175.808083535479
 31
0.0
  0
LINE
  5
51
100
AcDbEntity
  8
LC-005-002-RND-0
  6
STRICHPUNKT
 62
           2
100
AcDbLine
 10
97.891216003494
 20
170.800889144369
 30
0.0
 11
95.397831994013
 21
170.085925902072
 31
0.0
  0
ARC
  5
52
100
AcDbEntity
  8
LC-003-002-----0
  6
AUSGEZOGEN
 62
           1
100
AcDbCircle
 10
96.339741104574
 20
170.356012778103
 30
0.0
 40
1.0
100
AcDbArc
 50
306.389741999999
 51
85.610263000001
  0
LINE
  5
53
100
AcDbEntity
  8
LC-005-002-RND-0
  6
STRICHPUNKT
 62
           2
100
AcDbLine
 10
112.860004991028
 20
170.80088903984
 30
0.0
 11
115.353373088158
 21
170.085927469999
 31
0.0
  0
ARC
  5
54
100
AcDbEntity
  8
LC-003-002-----0
  6
AUSGEZOGEN
 62
           1
100
AcDbCircle
 10
114.411463977598
 20
170.35601434603
 30
0.0
 40
1.0
100
AcDbArc
 50
94.389737000001
 51
233.610258
  0
ARC
  5
55
100
AcDbEntity
  8
LC-003-002-----0
  6
AUSGEZOGEN
 62
           1
100
AcDbCircle
 10
96.339741000046
 20
175.537998227375
 30
0.0
 40
1.0
100
AcDbArc
 50
274.389742999999
 51
53.610253000001
  0
LINE
  5
56
100
AcDbEntity
  8
LC-005-002-RND-0
  6
STRICHPUNKT
 62
           2
100
AcDbLine
 10
97.891216003494
 20
175.093122855631
 30
0.0
 11
95.397831889485
 21
175.808085103406
 31
0.0
  0
CIRCLE
  5
57
100
AcDbEntity
  8
LC-005-002-RND-0
  6
STRICHPUNKT
 62
           2
100
AcDbCircle
 10
105.37561
 20
172.947006
 30
0.0
 40
28.0
  0
CIRCLE
  5
58
100
AcDbEntity
  8
LC-003-002-----0
  6
AUSGEZOGEN
 62
           1
100
AcDbCircle
 10
105.37561
 20
200.947006
 30
0.0
 40
2.25
  0
CIRCLE
  5
59
100
AcDbEntity
  8
LC-003-002-----0
  6
AUSGEZOGEN
 62
           1
100
AcDbCircle
 10
81.126898694036
 20
186.947006
 30
0.0
 40
2.25
  0
CIRCLE
  5
5A
100
AcDbEntity
  8
LC-003-002-----0
  6
AUSGEZOGEN
 62
           1
100
AcDbCircle
 10
81.126898694036
 20
158.947006
 30
0.0
 40
2.25
  0
CIRCLE
  5
5B
100
AcDbEntity
  8
LC-003-002-----0
  6
AUSGEZOGEN
 62
           1
100
AcDbCircle
 10
105.37561
 20
144.947006
 30
0.0
 40
2.25
  0
CIRCLE
  5
5C
100
AcDbEntity
  8
LC-003-002-----0
  6
AUSGEZOGEN
 62
           1
100
AcDbCircle
 10
129.624321305964
 20
158.947006
 30
0.0
 40
2.25
  0
CIRCLE
  5
5D
100
AcDbEntity
  8
LC-003-002-----0
  6
AUSGEZOGEN
 62
           1
100
AcDbCircle
 10
129.624321305964
 20
186.947006
 30
0.0
 40
2.25
  0
LINE
  5
5E
100
AcDbEntity
  8
LC-005-002-RND-0
  6
STRICHPUNKT
 62
           2
100
AcDbLine
 10
135.675571749576
 20
190.440697072553
 30
0.0
 11
75.208907502593
 21
155.530252192559
 31
0.0
  0
LINE
  5
5F
100
AcDbEntity
  8
LC-005-002-RND-0
  6
STRICHPUNKT
 62
           2
100
AcDbLine
 10
135.666410838977
 20
155.458603981647
 30
0.0
 11
75.042818187475
 21
190.459651518234
 31
0.0
  0
CIRCLE
  5
60
100
AcDbEntity
  8
LC-003-002-----0
  6
AUSGEZOGEN
 62
           1
100
AcDbCircle
 10
105.37561
 20
172.947006
 30
0.0
 40
32.25
  0
ARC
  5
61
100
AcDbEntity
  8
LC-006-012-----0
  6
AUSGEZOGEN
 62
           2
100
AcDbCircle
 10
105.37561
 20
189.947006
 30
0.0
 40
2.0
100
AcDbArc
 50
19.736940156841
 51
297.631642035707
  0
CIRCLE
  5
62
100
AcDbEntity
  8
LC-003-002-----0
  6
AUSGEZOGEN
 62
           1
100
AcDbCircle
 10
105.37561
 20
189.947006
 30
0.0
 40
1.5
  0
ARC
  5
63
100
AcDbEntity
  8
LC-006-012-----0
  6
AUSGEZOGEN
 62
           2
100
AcDbCircle
 10
90.653178135665
 20
181.447006
 30
0.0
 40
2.0
100
AcDbArc
 50
79.736940156841
 51
357.631642035707
  0
CIRCLE
  5
64
100
AcDbEntity
  8
LC-003-002-----0
  6
AUSGEZOGEN
 62
           1
100
AcDbCircle
 10
90.653178135665
 20
181.447006
 30
0.0
 40
1.5
  0
ARC
  5
65
100
AcDbEntity
  8
LC-006-012-----0
  6
AUSGEZOGEN
 62
           2
100
AcDbCircle
 10
90.653178135664
 20
164.447006
 30
0.0
 40
2.0
100
AcDbArc
 50
139.736940156841
 51
57.631642035707
  0
CIRCLE
  5
66
100
AcDbEntity
  8
LC-003-002-----0
  6
AUSGEZOGEN
 62
           1
100
AcDbCircle
 10
90.653178135664
 20
164.447006
 30
0.0
 40
1.5
  0
ARC
  5
67
100
AcDbEntity
  8
LC-006-012-----0
  6
AUSGEZOGEN
 62
           2
100
AcDbCircle
 10
105.37561
 20
155.947006
 30
0.0
 40
2.0
100
AcDbArc
 50
199.736940156841
 51
117.631642035707
  0
CIRCLE
  5
68
100
AcDbEntity
  8
LC-003-002-----0
  6
AUSGEZOGEN
 62
           1
100
AcDbCircle
 10
105.37561
 20
155.947006
 30
0.0
 40
1.5
  0
ARC
  5
69
100
AcDbEntity
  8
LC-006-012-----0
  6
AUSGEZOGEN
 62
           2
100
AcDbCircle
 10
120.098041864335
 20
164.447006
 30
0.0
 40
2.0
100
AcDbArc
 50
259.736940156841
 51
177.631642035707
  0
CIRCLE
  5
6A
100
AcDbEntity
  8
LC-003-002-----0
  6
AUSGEZOGEN
 62
           1
100
AcDbCircle
 10
120.098041864335
 20
164.447006
 30
0.0
 40
1.5
  0
ARC
  5
6B
100
AcDbEntity
  8
LC-006-012-----0
  6
AUSGEZOGEN
 62
           2
100
AcDbCircle
 10
120.098041864335
 20
181.447006
 30
0.0
 40
2.0
100
AcDbArc
 50
319.736940156841
 51
237.631642035707
  0
CIRCLE
  5
6C
100
AcDbEntity
  8
LC-003-002-----0
  6
AUSGEZOGEN
 62
           1
100
AcDbCircle
 10
120.098041864335
 20
181.447006
 30
0.0
 40
1.5
  0
LINE
  5
6D
100
AcDbEntity
  8
LC-003-002-----0
  6
AUSGEZOGEN
 62
           1
100
AcDbLine
 10
-49.136059
 20
182.046997
 30
0.0
 11
-38.650089
 21
182.046997
 31
0.0
  0
LINE
  5
6E
100
AcDbEntity
  8
LC-004-006-----0
  6
STRICHLINIE
 62
           2
100
AcDbLine
 10
-38.650089
 20
182.046997
 30
0.0
 11
21.349911
 21
182.046997
 31
0.0
  0
LINE
  5
6F
100
AcDbEntity
  8
LC-003-002-----0
  6
AUSGEZOGEN
 62
           1
100
AcDbLine
 10
21.349911
 20
182.046997
 30
0.0
 11
41.245136
 21
182.046997
 31
0.0
  0
LINE
  5
70
100
AcDbEntity
  8
LC-003-002-----0
  6
AUSGEZOGEN
 62
           1
100
AcDbLine
 10
-49.499437213152
 20
176.342992845156
 30
0.0
 11
-38.650089
 21
176.342992845156
 31
0.0
  0
LINE
  5
71
100
AcDbEntity
  8
LC-004-006-----0
  6
STRICHLINIE
 62
           2
100
AcDbLine
 10
-38.650089
 20
176.342992845156
 30
0.0
 11
21.349911
 21
176.342992845156
 31
0.0
  0
LINE
  5
72
100
AcDbEntity
  8
LC-003-002-----0
  6
AUSGEZOGEN
 62
           1
100
AcDbLine
 10
21.349911
 20
176.342992845156
 30
0.0
 11
41.124189776885
 21
176.342992845156
 31
0.0
  0
LINE
  5
73
100
AcDbEntity
  8
LC-003-002-----0
  6
AUSGEZOGEN
 62
           1
100
AcDbLine
 10
-49.377507745145
 20
174.540932477377
 30
0.0
 11
-38.650089
 21
174.540932477377
 31
0.0
  0
LINE
  5
74
100
AcDbEntity
  8
LC-004-006-----0
  6
STRICHLINIE
 62
           2
100
AcDbLine
 10
-38.650089
 20
174.540932477377
 30
0.0
 11
21.349911
 21
174.540932477377
 31
0.0
  0
LINE
  5
75
100
AcDbEntity
  8
LC-003-002-----0
  6
AUSGEZOGEN
 62
           1
100
AcDbLine
 10
21.349911
 20
174.540932477377
 30
0.0
 11
41.248054665535
 21
174.540932477377
 31
0.0
  0
LINE
  5
76
100
AcDbEntity
  8
LC-003-002-----0
  6
AUSGEZOGEN
 62
           1
100
AcDbLine
 10
-49.161813896174
 20
171.353078522466
 30
0.0
 11
-38.650089
 21
171.353078522466
 31
0.0
  0
LINE
  5
77
100
AcDbEntity
  8
LC-004-006-----0
  6
STRICHLINIE
 62
           2
100
AcDbLine
 10
-38.650089
 20
171.353078522466
 30
0.0
 11
21.349911
 21
171.353078522466
 31
0.0
  0
LINE
  5
78
100
AcDbEntity
  8
LC-003-002-----0
  6
AUSGEZOGEN
 62
           1
100
AcDbLine
 10
21.349911
 20
171.353078522466
 30
0.0
 11
41.467172283467
 21
171.353078522466
 31
0.0
  0
LINE
  5
79
100
AcDbEntity
  8
LC-003-002-----0
  6
AUSGEZOGEN
 62
           1
100
AcDbLine
 10
-49.039884439915
 20
169.551018328313
 30
0.0
 11
-38.650089
 21
169.551018328313
 31
0.0
  0
LINE
  5
7A
100
AcDbEntity
  8
LC-004-006-----0
  6
STRICHLINIE
 62
           2
100
AcDbLine
 10
-38.650089
 20
169.551018328313
 30
0.0
 11
21.349911
 21
169.551018328313
 31
0.0
  0
LINE
  5
7B
100
AcDbEntity
  8
LC-003-002-----0
  6
AUSGEZOGEN
 62
           1
100
AcDbLine
 10
21.349911
 20
169.551018328313
 30
0.0
 11
41.591037160182
 21
169.551018328313
 31
0.0
  0
LINE
  5
7C
100
AcDbEntity
  8
LC-003-002-----0
  6
AUSGEZOGEN
 62
           1
100
AcDbLine
 10
9.349911
 20
192.947006
 30
0.0
 11
20.849911
 21
192.947006
 31
0.0
  0
LINE
  5
7D
100
AcDbEntity
  8
LC-003-002-----0
  6
AUSGEZOGEN
 62
           1
100
AcDbLine
 10
9.349911
 20
152.947006
 30
0.0
 11
20.849911
 21
152.947006
 31
0.0
  0
LINE
  5
7E
100
AcDbEntity
  8
LC-003-002-----0
  6
AUSGEZOGEN
 62
           1
100
AcDbLine
 10
21.349911
 20
192.447006
 30
0.0
 11
21.349911
 21
153.447006
 31
0.0
  0
LINE
  5
7F
100
AcDbEntity
  8
LC-003-002-----0
  6
AUSGEZOGEN
 62
           1
100
AcDbLine
 10
20.849911
 20
192.947006
 30
0.0
 11
21.349911
 21
192.447006
 31
0.0
  0
LINE
  5
80
100
AcDbEntity
  8
LC-003-002-----0
  6
AUSGEZOGEN
 62
           1
100
AcDbLine
 10
21.349911
 20
153.447006
 30
0.0
 11
20.849911
 21
152.947006
 31
0.0
  0
LINE
  5
81
100
AcDbEntity
  8
LC-003-002-----0
  6
AUSGEZOGEN
 62
           1
100
AcDbLine
 10
2.849911
 20
139.947006
 30
0.0
 11
2.849911
 21
205.947006
 31
0.0
  0
LINE
  5
82
100
AcDbEntity
  8
LC-005-002-RND-0
  6
STRICHPUNKT
 62
           2
100
AcDbLine
 10
-8.031527098057
 20
200.947006
 30
0.0
 11
12.620971154089
 21
200.947006
 31
0.0
  0
LINE
  5
83
100
AcDbEntity
  8
LC-004-006-----0
  6
STRICHLINIE
 62
           2
100
AcDbLine
 10
-3.650089
 20
198.697006
 30
0.0
 11
9.349911
 21
198.697006
 31
0.0
  0
LINE
  5
84
100
AcDbEntity
  8
LC-004-006-----0
  6
STRICHLINIE
 62
           2
100
AcDbLine
 10
-3.650089
 20
203.197006
 30
0.0
 11
9.349911
 21
203.197006
 31
0.0
  0
LINE
  5
85
100
AcDbEntity
  8
LC-005-002-RND-0
  6
STRICHPUNKT
 62
           2
100
AcDbLine
 10
-8.031527098057
 20
144.947006
 30
0.0
 11
12.620971154089
 21
144.947006
 31
0.0
  0
LINE
  5
86
100
AcDbEntity
  8
LC-004-006-----0
  6
STRICHLINIE
 62
           2
100
AcDbLine
 10
-3.650089
 20
147.197006
 30
0.0
 11
9.349911
 21
147.197006
 31
0.0
  0
LINE
  5
87
100
AcDbEntity
  8
LC-004-006-----0
  6
STRICHLINIE
 62
           2
100
AcDbLine
 10
-3.650089
 20
142.697006
 30
0.0
 11
9.349911
 21
142.697006
 31
0.0
  0
LINE
  5
88
100
AcDbEntity
  8
LC-006-012-----0
  6
AUSGEZOGEN
 62
           2
100
AcDbLine
 10
14.349911
 20
187.947006
 30
0.0
 11
21.349911
 21
187.947006
 31
0.0
  0
LINE
  5
89
100
AcDbEntity
  8
LC-006-012-----0
  6
AUSGEZOGEN
 62
           2
100
AcDbLine
 10
14.349911
 20
191.947006
 30
0.0
 11
21.349911
 21
191.947006
 31
0.0
  0
LINE
  5
8A
100
AcDbEntity
  8
LC-003-002-----0
  6
AUSGEZOGEN
 62
           1
100
AcDbLine
 10
11.349911
 20
191.447006
 30
0.0
 11
21.349911
 21
191.447006
 31
0.0
  0
LINE
  5
8B
100
AcDbEntity
  8
LC-003-002-----0
  6
AUSGEZOGEN
 62
           1
100
AcDbLine
 10
11.349911
 20
188.447006
 30
0.0
 11
21.349911
 21
188.447006
 31
0.0
  0
LINE
  5
8C
100
AcDbEntity
  8
LC-005-002-RND-0
  6
STRICHPUNKT
 62
           2
100
AcDbLine
 10
7.309304398256
 20
189.947006
 30
0.0
 11
25.333141084413
 21
189.947006
 31
0.0
  0
LINE
  5
8D
100
AcDbEntity
  8
LC-006-012-----0
  6
AUSGEZOGEN
 62
           2
100
AcDbLine
 10
14.349911
 20
191.947006
 30
0.0
 11
14.349911
 21
187.947006
 31
0.0
  0
LINE
  5
8E
100
AcDbEntity
  8
LC-003-002-----0
  6
AUSGEZOGEN
 62
           1
100
AcDbLine
 10
11.349911
 20
191.447006
 30
0.0
 11
11.349911
 21
188.447006
 31
0.0
  0
LINE
  5
8F
100
AcDbEntity
  8
LC-003-002-----0
  6
AUSGEZOGEN
 62
           1
100
AcDbLine
 10
11.349911
 20
191.447006
 30
0.0
 11
10.483885596216
 21
189.947006
 31
0.0
  0
LINE
  5
90
100
AcDbEntity
  8
LC-003-002-----0
  6
AUSGEZOGEN
 62
           1
100
AcDbLine
 10
11.349911
 20
188.447006
 30
0.0
 11
10.483885596216
 21
189.947006
 31
0.0
  0
LINE
  5
91
100
AcDbEntity
  8
LC-006-012-----0
  6
AUSGEZOGEN
 62
           2
100
AcDbLine
 10
10.491953545836
 20
192.947006
 30
0.0
 11
9.952521486924
 21
191.197214258099
 31
0.0
  0
LINE
  5
92
100
AcDbEntity
  8
LC-006-012-----0
  6
AUSGEZOGEN
 62
           2
100
AcDbLine
 10
9.952521486924
 20
191.197214258099
 30
0.0
 11
9.952521486924
 21
188.383501185672
 31
0.0
  0
LINE
  5
93
100
AcDbEntity
  8
LC-006-012-----0
  6
AUSGEZOGEN
 62
           2
100
AcDbLine
 10
9.952521486924
 20
188.383501185672
 30
0.0
 11
10.923499192966
 21
186.868424915903
 31
0.0
  0
LINE
  5
94
100
AcDbEntity
  8
LC-006-012-----0
  6
AUSGEZOGEN
 62
           2
100
AcDbLine
 10
10.923499192966
 20
186.868424915903
 30
0.0
 11
13.243057046287
 21
185.299238779358
 31
0.0
  0
LINE
  5
95
100
AcDbEntity
  8
LC-006-012-----0
  6
AUSGEZOGEN
 62
           2
100
AcDbLine
 10
13.243057046287
 20
185.299238779358
 30
0.0
 11
17.234854282235
 21
184.920469711915
 31
0.0
  0
LINE
  5
96
100
AcDbEntity
  8
LC-006-012-----0
  6
AUSGEZOGEN
 62
           2
100
AcDbLine
 10
17.234854282235
 20
184.920469711915
 30
0.0
 11
21.349911
 21
184.920469711915
 31
0.0
  0
INSERT
  5
97
100
AcDbEntity
  8
LC-006-012-----0
  6
AUSGEZOGEN
 62
           2
100
AcDbBlockReference
  2
*X1
 10
0.0
 20
0.0
 30
0.0
  0
LINE
  5
98
100
AcDbEntity
  8
LC-005-002-RND-0
  6
STRICHPUNKT
 62
           2
100
AcDbLine
 10
7.309304398256
 20
155.947006
 30
0.0
 11
25.333141084413
 21
155.947006
 31
0.0
  0
LINE
  5
99
100
AcDbEntity
  8
LC-004-006-----0
  6
STRICHLINIE
 62
           2
100
AcDbLine
 10
14.349911
 20
157.947006
 30
0.0
 11
21.349911
 21
157.947006
 31
0.0
  0
LINE
  5
9A
100
AcDbEntity
  8
LC-004-006-----0
  6
STRICHLINIE
 62
           2
100
AcDbLine
 10
14.349911
 20
153.947006
 30
0.0
 11
21.349911
 21
153.947006
 31
0.0
  0
LINE
  5
9B
100
AcDbEntity
  8
LC-004-006-----0
  6
STRICHLINIE
 62
           2
100
AcDbLine
 10
11.349911
 20
154.447006
 30
0.0
 11
21.349911
 21
154.447006
 31
0.0
  0
LINE
  5
9C
100
AcDbEntity
  8
LC-004-006-----0
  6
STRICHLINIE
 62
           2
100
AcDbLine
 10
11.349911
 20
157.447006
 30
0.0
 11
21.349911
 21
157.447006
 31
0.0
  0
LINE
  5
9D
100
AcDbEntity
  8
LC-004-006-----0
  6
STRICHLINIE
 62
           2
100
AcDbLine
 10
14.349911
 20
153.947006
 30
0.0
 11
14.349911
 21
157.947006
 31
0.0
  0
LINE
  5
9E
100
AcDbEntity
  8
LC-004-006-----0
  6
STRICHLINIE
 62
           2
100
AcDbLine
 10
11.349911
 20
154.447006
 30
0.0
 11
11.349911
 21
157.447006
 31
0.0
  0
LINE
  5
9F
100
AcDbEntity
  8
LC-004-006-----0
  6
STRICHLINIE
 62
           2
100
AcDbLine
 10
11.349911
 20
154.447006
 30
0.0
 11
10.483885596216
 21
155.947006
 31
0.0
  0
LINE
  5
A0
100
AcDbEntity
  8
LC-004-006-----0
  6
STRICHLINIE
 62
           2
100
AcDbLine
 10
11.349911
 20
157.447006
 30
0.0
 11
10.483885596216
 21
155.947006
 31
0.0
  0
LINE
  5
A1
100
AcDbEntity
  8
LC-003-002-----0
  6
AUSGEZOGEN
 62
           1
100
AcDbLine
 10
20.849911
 20
152.947006
 30
0.0
 11
20.849911
 21
184.920469711915
 31
0.0
  0
ENDSEC
  0
SECTION
  2
OBJECTS
  0
DICTIONARY
  5
19
100
AcDbDictionary
  3
ACAD_GROUP
350
1A
  3
ACAD_MLINESTYLE
350
1B
  0
DICTIONARY
  5
1A
102
{ACAD_REACTORS
330
19
102
}
100
AcDbDictionary
  0
DICTIONARY
  5
1B
102
{ACAD_REACTORS
330
19
102
}
100
AcDbDictionary
  3
STANDARD
350
1C
  0
MLINESTYLE
  5
1C
102
{ACAD_REACTORS
330
1B
102
}
100
AcDbMlineStyle
  2
STANDARD
 70
           0
  3

 62
           0
 51
90.0
 52
90.0
 71
           2
 49
0.5
 62
         256
  6
BYLAYER
 49
-0.5
 62
         256
  6
BYLAYER
  0
ENDSEC
  0
EOF
