  0
SECTION
  2
HEADER
  9
$LIMMIN
 10
46.964596
 20
164.589203
  9
$LIMMAX
 10
204.682892
 20
201.320847
  9
$EXTMIN
 10
46.964596
 20
164.589203
  9
$EXTMAX
 10
204.682892
 20
201.320847
  0
ENDSEC
  0
SECTION
  2
TABLES
  0
TABLE
  2
LTYPE
 70
     3
  0
LTYPE
  2
CONTINUOUS
 70
    64
  3
Ausgezogene Linie
 72
    65
 73
     0
 40
0.0
  0
LTYPE
  2
DASHED
 70
    64
  3
__ __ __ __ __ __ __ __ __ __ __ __ __ __ __
 72
    65
 73
     2
 40
0.75
 49
0.5
 49
-0.25
  0
LTYPE
  2
DASHDOT
 70
    64
  3
__ . __ . __ . __ . __ . __ . __ . __ . __ . __
 72
    65
 73
     4
 40
1.0
 49
0.5
 49
-0.25
 49
0.0
 49
-0.25
  0
ENDTAB
  0
TABLE
  2
LAYER
 70
     4
  0
LAYER
  2
LC-003-002-----0
 70
    64
 62
     7
  6
CONTINUOUS
  0
LAYER
  2
LC-005-002-RND-0
 70
    64
 62
     7
  6
CONTINUOUS
  0
LAYER
  2
LC-004-006-----0
 70
    64
 62
     7
  6
CONTINUOUS
  0
LAYER
  2
LC-006-012-----0
 70
    64
 62
     7
  6
CONTINUOUS
  0
ENDTAB
  0
TABLE
  2
STYLE
 70
     1
  0
STYLE
  2
TXT8
 70
    64
 40
0.0
 41
1.0
 50
0.0
 71
     0
 42
3.500000
  3
TXT8
  4

  0
ENDTAB
  0
ENDSEC
  0
SECTION
  2
BLOCKS
  0
ENDSEC
  0
SECTION
  2
ENTITIES
  0
LINE
  8
LC-005-002-RND-0
 62
     2
  6
DASHDOT
 10
46.964596
 20
182.857300
 11
141.960144
 21
182.857300
  0
LINE
  8
LC-003-002-----0
 62
     1
  6
CONTINUOUS
 10
63.183723
 20
198.857300
 11
71.583725
 21
198.857300
  0
LINE
  8
LC-003-002-----0
 62
     1
  6
CONTINUOUS
 10
63.183723
 20
166.857300
 11
71.583725
 21
166.857300
  0
LINE
  8
LC-003-002-----0
 62
     1
  6
CONTINUOUS
 10
62.433723
 20
198.107300
 11
62.433723
 21
167.607300
  0
LINE
  8
LC-003-002-----0
 62
     1
  6
CONTINUOUS
 10
122.433723
 20
198.107300
 11
122.433723
 21
167.607300
  0
ARC
  8
LC-003-002-----0
 62
     1
  6
CONTINUOUS
 10
63.183723
 20
198.107300
 40
0.750000
 50
90.000003
 51
180.000009
  0
ARC
  8
LC-003-002-----0
 62
     1
  6
CONTINUOUS
 10
63.183723
 20
167.607300
 40
0.750000
 50
180.000009
 51
269.999997
  0
ARC
  8
LC-003-002-----0
 62
     1
  6
CONTINUOUS
 10
121.683723
 20
167.607300
 40
0.750000
 50
269.999997
 51
0.000000
  0
ARC
  8
LC-003-002-----0
 62
     1
  6
CONTINUOUS
 10
121.683723
 20
198.107300
 40
0.750000
 50
0.000000
 51
90.000003
  0
LINE
  8
LC-005-002-RND-0
 62
     2
  6
DASHDOT
 10
92.433723
 20
199.857300
 11
92.433723
 21
165.857300
  0
LINE
  8
LC-003-002-----0
 62
     1
  6
CONTINUOUS
 10
111.683723
 20
198.857300
 11
111.683723
 21
166.857300
  0
LINE
  8
LC-003-002-----0
 62
     1
  6
CONTINUOUS
 10
113.283722
 20
198.857300
 11
113.283722
 21
166.857300
  0
LINE
  8
LC-003-002-----0
 62
     1
  6
CONTINUOUS
 10
111.683723
 20
198.007294
 11
113.283722
 21
198.007294
  0
LINE
  8
LC-003-002-----0
 62
     1
  6
CONTINUOUS
 10
111.683723
 20
167.707306
 11
113.283722
 21
167.707306
  0
LINE
  8
LC-003-002-----0
 62
     1
  6
CONTINUOUS
 10
113.283722
 20
166.857300
 11
121.683723
 21
166.857300
  0
LINE
  8
LC-003-002-----0
 62
     1
  6
CONTINUOUS
 10
113.283722
 20
198.857300
 11
121.683723
 21
198.857300
  0
LINE
  8
LC-003-002-----0
 62
     1
  6
CONTINUOUS
 10
73.183723
 20
198.857300
 11
73.183723
 21
166.857300
  0
LINE
  8
LC-003-002-----0
 62
     1
  6
CONTINUOUS
 10
71.583725
 20
198.857300
 11
71.583725
 21
166.857300
  0
LINE
  8
LC-003-002-----0
 62
     1
  6
CONTINUOUS
 10
73.183723
 20
198.007294
 11
71.583725
 21
198.007294
  0
LINE
  8
LC-003-002-----0
 62
     1
  6
CONTINUOUS
 10
73.183723
 20
167.707306
 11
71.583725
 21
167.707306
  0
LINE
  8
LC-003-002-----0
 62
     1
  6
CONTINUOUS
 10
73.183723
 20
166.857300
 11
91.433723
 21
166.857300
  0
LINE
  8
LC-003-002-----0
 62
     1
  6
CONTINUOUS
 10
73.183723
 20
198.857300
 11
91.433723
 21
198.857300
  0
LINE
  8
LC-003-002-----0
 62
     1
  6
CONTINUOUS
 10
93.433723
 20
198.857300
 11
93.433723
 21
184.857300
  0
LINE
  8
LC-003-002-----0
 62
     1
  6
CONTINUOUS
 10
91.433723
 20
198.857300
 11
91.433723
 21
184.857300
  0
ARC
  8
LC-003-002-----0
 62
     1
  6
CONTINUOUS
 10
92.433723
 20
198.857300
 40
1.000000
 50
180.000009
 51
0.000000
  0
ARC
  8
LC-003-002-----0
 62
     1
  6
CONTINUOUS
 10
92.433723
 20
166.857300
 40
1.000000
 50
0.000000
 51
180.000009
  0
LINE
  8
LC-003-002-----0
 62
     1
  6
CONTINUOUS
 10
93.433723
 20
198.857300
 11
111.683723
 21
198.857300
  0
LINE
  8
LC-003-002-----0
 62
     1
  6
CONTINUOUS
 10
93.433723
 20
166.857300
 11
111.683723
 21
166.857300
  0
LINE
  8
LC-003-002-----0
 62
     1
  6
CONTINUOUS
 10
49.987324
 20
191.957306
 11
62.433723
 21
191.957306
  0
LINE
  8
LC-003-002-----0
 62
     1
  6
CONTINUOUS
 10
50.113968
 20
173.757294
 11
62.433723
 21
173.757294
  0
LINE
  8
LC-006-012-----0
 62
     2
  6
CONTINUOUS
 10
50.113968
 20
173.757294
 11
50.640697
 21
177.528076
  0
LINE
  8
LC-006-012-----0
 62
     2
  6
CONTINUOUS
 10
50.640697
 20
177.528076
 11
49.885391
 21
188.413971
  0
LINE
  8
LC-006-012-----0
 62
     2
  6
CONTINUOUS
 10
49.885391
 20
188.413971
 11
49.987324
 21
191.957306
  0
LINE
  8
LC-006-012-----0
 62
     2
  6
CONTINUOUS
 10
137.734756
 20
173.757294
 11
137.239471
 21
177.249252
  0
LINE
  8
LC-006-012-----0
 62
     2
  6
CONTINUOUS
 10
137.239471
 20
177.249252
 11
137.428299
 21
187.159256
  0
LINE
  8
LC-006-012-----0
 62
     2
  6
CONTINUOUS
 10
137.428299
 20
187.159256
 11
137.054901
 21
191.957306
  0
LINE
  8
LC-004-006-----0
 62
     2
  6
DASHED
 10
62.433723
 20
191.957306
 11
122.433723
 21
191.957306
  0
LINE
  8
LC-003-002-----0
 62
     1
  6
CONTINUOUS
 10
122.433723
 20
191.957306
 11
137.054901
 21
191.957306
  0
LINE
  8
LC-004-006-----0
 62
     2
  6
DASHED
 10
62.433723
 20
173.757294
 11
122.433723
 21
173.757294
  0
LINE
  8
LC-003-002-----0
 62
     1
  6
CONTINUOUS
 10
122.433723
 20
173.757294
 11
137.734756
 21
173.757294
  0
LINE
  8
LC-005-002-RND-0
 62
     2
  6
DASHDOT
 10
167.598267
 20
182.857300
 11
204.682892
 21
182.857300
  0
LINE
  8
LC-005-002-RND-0
 62
     2
  6
DASHDOT
 10
186.203659
 20
201.320847
 11
186.203659
 21
164.589203
  0
CIRCLE
  8
LC-003-002-----0
 62
     1
  6
CONTINUOUS
 10
186.203659
 20
182.857300
 40
16.000000
  0
LINE
  8
LC-004-006-----0
 62
     2
  6
DASHED
 10
199.703659
 20
184.857300
 11
202.078171
 21
184.857300
  0
LINE
  8
LC-004-006-----0
 62
     2
  6
DASHED
 10
199.703659
 20
180.857300
 11
202.078171
 21
180.857300
  0
LINE
  8
LC-005-002-RND-0
 62
     2
  6
DASHDOT
 10
187.517395
 20
190.307892
 11
187.921692
 21
192.600723
  0
LINE
  8
LC-004-006-----0
 62
     2
  6
DASHED
 10
199.703659
 20
180.857300
 11
199.703659
 21
184.857300
  0
ARC
  8
LC-003-002-----0
 62
     1
  6
CONTINUOUS
 10
187.818588
 20
192.016006
 40
1.000000
 50
184.572971
 51
335.427023
  0
ARC
  8
LC-003-002-----0
 62
     1
  6
CONTINUOUS
 10
184.588730
 20
192.016006
 40
1.000000
 50
204.572980
 51
355.427024
  0
LINE
  8
LC-005-002-RND-0
 62
     2
  6
DASHDOT
 10
184.889923
 20
190.307892
 11
184.485626
 21
192.600723
  0
ARC
  8
LC-003-002-----0
 62
     1
  6
CONTINUOUS
 10
186.203659
 20
182.857300
 40
9.100000
 50
86.105224
 51
93.894774
  0
LINE
  8
LC-005-002-RND-0
 62
     2
  6
DASHDOT
 10
187.517395
 20
175.406708
 11
187.921692
 21
173.113876
  0
ARC
  8
LC-003-002-----0
 62
     1
  6
CONTINUOUS
 10
187.818588
 20
173.698593
 40
1.000000
 50
24.572977
 51
175.427029
  0
ARC
  8
LC-003-002-----0
 62
     1
  6
CONTINUOUS
 10
184.588730
 20
173.698593
 40
1.000000
 50
4.572976
 51
155.427020
  0
LINE
  8
LC-005-002-RND-0
 62
     2
  6
DASHDOT
 10
184.889923
 20
175.406708
 11
184.485626
 21
173.113876
  0
ARC
  8
LC-003-002-----0
 62
     1
  6
CONTINUOUS
 10
186.203659
 20
182.857300
 40
9.100000
 50
266.105226
 51
273.894776
  0
CIRCLE
  8
LC-003-002-----0
 62
     1
  6
CONTINUOUS
 10
186.203659
 20
182.857300
 40
15.000000
  0
LINE
  8
LC-003-002-----0
 62
     1
  6
CONTINUOUS
 10
103.433723
 20
184.857300
 11
81.433723
 21
184.857300
  0
LINE
  8
LC-004-006-----0
 62
     2
  6
DASHED
 10
187.453659
 20
198.808395
 11
187.453659
 21
195.245361
  0
ARC
  8
LC-003-002-----0
 62
     1
  6
CONTINUOUS
 10
186.203659
 20
182.857300
 40
9.100000
 50
106.105220
 51
253.894780
  0
ARC
  8
LC-003-002-----0
 62
     1
  6
CONTINUOUS
 10
186.203659
 20
182.857300
 40
9.100000
 50
286.105222
 51
73.894778
  0
ARC
  8
LC-003-002-----0
 62
     1
  6
CONTINUOUS
 10
186.203659
 20
182.857300
 40
9.500000
 50
103.448734
 51
256.551266
  0
ARC
  8
LC-003-002-----0
 62
     1
  6
CONTINUOUS
 10
184.588730
 20
173.698593
 40
0.600000
 50
332.262320
 51
187.737684
  0
ARC
  8
LC-003-002-----0
 62
     1
  6
CONTINUOUS
 10
186.203659
 20
182.857300
 40
9.500000
 50
263.448733
 51
276.551262
  0
ARC
  8
LC-003-002-----0
 62
     1
  6
CONTINUOUS
 10
187.818588
 20
173.698593
 40
0.600000
 50
352.262320
 51
207.737680
  0
ARC
  8
LC-003-002-----0
 62
     1
  6
CONTINUOUS
 10
186.203659
 20
182.857300
 40
9.500000
 50
283.448736
 51
76.551264
  0
LINE
  8
LC-004-006-----0
 62
     2
  6
DASHED
 10
184.953659
 20
198.808395
 11
184.953659
 21
195.245361
  0
LINE
  8
LC-004-006-----0
 62
     2
  6
DASHED
 10
184.953659
 20
170.166595
 11
184.953659
 21
166.906204
  0
LINE
  8
LC-004-006-----0
 62
     2
  6
DASHED
 10
187.453659
 20
170.166595
 11
187.453659
 21
166.906204
  0
LINE
  8
LC-003-002-----0
 62
     1
  6
CONTINUOUS
 10
103.433723
 20
180.857300
 11
81.433723
 21
180.857300
  0
LINE
  8
LC-005-002-RND-0
 62
     2
  6
DASHDOT
 10
103.433723
 20
186.627823
 11
103.433723
 21
178.932846
  0
LINE
  8
LC-005-002-RND-0
 62
     2
  6
DASHDOT
 10
81.433723
 20
186.627823
 11
81.433723
 21
178.932846
  0
ARC
  8
LC-003-002-----0
 62
     1
  6
CONTINUOUS
 10
81.433723
 20
182.857300
 40
2.000000
 50
90.000003
 51
269.999997
  0
ARC
  8
LC-003-002-----0
 62
     1
  6
CONTINUOUS
 10
103.433723
 20
182.857300
 40
2.000000
 50
269.999997
 51
90.000003
  0
LINE
  8
LC-003-002-----0
 62
     1
  6
CONTINUOUS
 10
91.433723
 20
180.857300
 11
91.433723
 21
166.857300
  0
LINE
  8
LC-003-002-----0
 62
     1
  6
CONTINUOUS
 10
93.433723
 20
180.857300
 11
93.433723
 21
166.857300
  0
LINE
  8
LC-003-002-----0
 62
     1
  6
CONTINUOUS
 10
137.693420
 20
174.123825
 11
122.433731
 21
174.123825
  0
LINE
  8
LC-004-006-----0
 62
     2
  6
DASHED
 10
122.433723
 20
174.123825
 11
62.433723
 21
174.123825
  0
LINE
  8
LC-003-002-----0
 62
     1
  6
CONTINUOUS
 10
62.433723
 20
174.123825
 11
50.155304
 21
174.123825
  0
LINE
  8
LC-003-002-----0
 62
     1
  6
CONTINUOUS
 10
62.433723
 20
191.590775
 11
49.978916
 21
191.590775
  0
LINE
  8
LC-004-006-----0
 62
     2
  6
DASHED
 10
122.433723
 20
191.590775
 11
62.433723
 21
191.590775
  0
LINE
  8
LC-003-002-----0
 62
     1
  6
CONTINUOUS
 10
137.078918
 20
191.590775
 11
122.433723
 21
191.590775
  0
ARC
  8
LC-003-002-----0
 62
     1
  6
CONTINUOUS
 10
187.818588
 20
192.016006
 40
0.600000
 50
152.262320
 51
7.737680
  0
ARC
  8
LC-003-002-----0
 62
     1
  6
CONTINUOUS
 10
186.203659
 20
182.857300
 40
9.500000
 50
83.448738
 51
96.551267
  0
ARC
  8
LC-003-002-----0
 62
     1
  6
CONTINUOUS
 10
184.588730
 20
192.016006
 40
0.600000
 50
172.262316
 51
27.737680
  0
ENDSEC
  0
EOF
