  0
SECTION
  2
HEADER
  9
$LIMMIN
 10
46.245033
 20
61.660255
  9
$LIMMAX
 10
216.811386
 20
103.570450
  9
$EXTMIN
 10
46.245033
 20
61.660255
  9
$EXTMAX
 10
216.811386
 20
103.570450
  0
ENDSEC
  0
SECTION
  2
TABLES
  0
TABLE
  2
LTYPE
 70
     3
  0
LTYPE
  2
CONTINUOUS
 70
    64
  3
Ausgezogene Linie
 72
    65
 73
     0
 40
0.0
  0
LTYPE
  2
DASHED
 70
    64
  3
__ __ __ __ __ __ __ __ __ __ __ __ __ __ __
 72
    65
 73
     2
 40
0.75
 49
0.5
 49
-0.25
  0
LTYPE
  2
DASHDOT
 70
    64
  3
__ . __ . __ . __ . __ . __ . __ . __ . __ . __
 72
    65
 73
     4
 40
1.0
 49
0.5
 49
-0.25
 49
0.0
 49
-0.25
  0
ENDTAB
  0
TABLE
  2
LAYER
 70
     4
  0
LAYER
  2
LC-003-002-----0
 70
    64
 62
     7
  6
CONTINUOUS
  0
LAYER
  2
LC-005-002-RND-0
 70
    64
 62
     7
  6
CONTINUOUS
  0
LAYER
  2
LC-004-006-----0
 70
    64
 62
     7
  6
CONTINUOUS
  0
LAYER
  2
LC-006-012-----0
 70
    64
 62
     7
  6
CONTINUOUS
  0
ENDTAB
  0
TABLE
  2
STYLE
 70
     1
  0
STYLE
  2
TXT8
 70
    64
 40
0.0
 41
1.0
 50
0.0
 71
     0
 42
3.500000
  3
TXT8
  4

  0
ENDTAB
  0
ENDSEC
  0
SECTION
  2
BLOCKS
  0
ENDSEC
  0
SECTION
  2
ENTITIES
  0
LINE
  8
LC-003-002-----0
 62
     1
  6
CONTINUOUS
 10
48.698360
 20
94.336624
 11
62.433723
 21
94.336624
  0
LINE
  8
LC-005-002-RND-0
 62
     2
  6
DASHDOT
 10
46.245033
 20
82.836624
 11
151.471298
 21
82.836624
  0
LINE
  8
LC-003-002-----0
 62
     1
  6
CONTINUOUS
 10
63.433723
 20
101.336624
 11
72.833725
 21
101.336624
  0
LINE
  8
LC-003-002-----0
 62
     1
  6
CONTINUOUS
 10
63.433723
 20
64.336624
 11
72.833725
 21
64.336624
  0
LINE
  8
LC-003-002-----0
 62
     1
  6
CONTINUOUS
 10
62.433723
 20
100.336624
 11
62.433723
 21
65.336624
  0
LINE
  8
LC-003-002-----0
 62
     1
  6
CONTINUOUS
 10
132.433716
 20
100.336624
 11
132.433716
 21
65.336624
  0
ARC
  8
LC-003-002-----0
 62
     1
  6
CONTINUOUS
 10
63.433723
 20
100.336624
 40
1.000000
 50
90.000003
 51
180.000009
  0
ARC
  8
LC-003-002-----0
 62
     1
  6
CONTINUOUS
 10
63.433723
 20
65.336624
 40
1.000000
 50
180.000009
 51
269.999997
  0
ARC
  8
LC-003-002-----0
 62
     1
  6
CONTINUOUS
 10
131.433716
 20
65.336624
 40
1.000000
 50
269.999997
 51
0.000000
  0
ARC
  8
LC-003-002-----0
 62
     1
  6
CONTINUOUS
 10
131.433716
 20
100.336624
 40
1.000000
 50
0.000000
 51
90.000003
  0
LINE
  8
LC-005-002-RND-0
 62
     2
  6
DASHDOT
 10
97.433723
 20
102.836624
 11
97.433723
 21
63.081093
  0
LINE
  8
LC-003-002-----0
 62
     1
  6
CONTINUOUS
 10
98.933723
 20
101.336624
 11
98.933723
 21
85.336624
  0
LINE
  8
LC-003-002-----0
 62
     1
  6
CONTINUOUS
 10
95.933723
 20
101.336624
 11
95.933723
 21
85.336624
  0
LINE
  8
LC-003-002-----0
 62
     1
  6
CONTINUOUS
 10
120.183723
 20
101.336624
 11
120.183723
 21
64.336624
  0
LINE
  8
LC-003-002-----0
 62
     1
  6
CONTINUOUS
 10
122.033722
 20
101.336624
 11
122.033722
 21
64.336624
  0
LINE
  8
LC-003-002-----0
 62
     1
  6
CONTINUOUS
 10
120.183723
 20
100.336624
 11
122.033722
 21
100.336624
  0
LINE
  8
LC-003-002-----0
 62
     1
  6
CONTINUOUS
 10
120.183723
 20
65.336624
 11
122.033722
 21
65.336624
  0
LINE
  8
LC-003-002-----0
 62
     1
  6
CONTINUOUS
 10
122.033722
 20
101.336624
 11
131.433716
 21
101.336624
  0
LINE
  8
LC-003-002-----0
 62
     1
  6
CONTINUOUS
 10
122.033722
 20
64.336624
 11
131.433716
 21
64.336624
  0
LINE
  8
LC-003-002-----0
 62
     1
  6
CONTINUOUS
 10
74.683723
 20
101.336624
 11
74.683723
 21
64.336624
  0
LINE
  8
LC-003-002-----0
 62
     1
  6
CONTINUOUS
 10
72.833725
 20
101.336624
 11
72.833725
 21
64.336624
  0
LINE
  8
LC-003-002-----0
 62
     1
  6
CONTINUOUS
 10
74.683723
 20
100.336624
 11
72.833725
 21
100.336624
  0
LINE
  8
LC-003-002-----0
 62
     1
  6
CONTINUOUS
 10
74.683723
 20
65.336624
 11
72.833725
 21
65.336624
  0
LINE
  8
LC-003-002-----0
 62
     1
  6
CONTINUOUS
 10
74.683723
 20
64.336624
 11
95.933723
 21
64.336624
  0
LINE
  8
LC-003-002-----0
 62
     1
  6
CONTINUOUS
 10
74.683723
 20
101.336624
 11
95.933723
 21
101.336624
  0
ARC
  8
LC-003-002-----0
 62
     1
  6
CONTINUOUS
 10
97.433723
 20
64.336624
 40
1.500000
 50
0.000000
 51
180.000009
  0
ARC
  8
LC-003-002-----0
 62
     1
  6
CONTINUOUS
 10
97.433723
 20
101.336624
 40
1.500000
 50
180.000009
 51
0.000000
  0
LINE
  8
LC-003-002-----0
 62
     1
  6
CONTINUOUS
 10
98.933723
 20
101.336624
 11
120.183723
 21
101.336624
  0
LINE
  8
LC-003-002-----0
 62
     1
  6
CONTINUOUS
 10
98.933723
 20
64.336624
 11
120.183723
 21
64.336624
  0
LINE
  8
LC-003-002-----0
 62
     1
  6
CONTINUOUS
 10
48.373627
 20
71.336624
 11
62.433723
 21
71.336624
  0
LINE
  8
LC-006-012-----0
 62
     2
  6
CONTINUOUS
 10
48.373627
 20
71.336624
 11
48.870117
 21
75.557220
  0
LINE
  8
LC-006-012-----0
 62
     2
  6
CONTINUOUS
 10
48.870117
 20
75.557220
 11
48.606594
 21
87.826828
  0
LINE
  8
LC-006-012-----0
 62
     2
  6
CONTINUOUS
 10
48.606594
 20
87.826828
 11
48.698360
 21
94.336624
  0
LINE
  8
LC-006-012-----0
 62
     2
  6
CONTINUOUS
 10
148.634811
 20
71.336624
 11
148.187408
 21
76.627312
  0
LINE
  8
LC-006-012-----0
 62
     2
  6
CONTINUOUS
 10
148.187408
 20
76.627312
 11
148.319168
 21
88.507797
  0
LINE
  8
LC-006-012-----0
 62
     2
  6
CONTINUOUS
 10
148.319168
 20
88.507797
 11
147.391281
 21
94.336624
  0
LINE
  8
LC-004-006-----0
 62
     2
  6
DASHED
 10
62.433723
 20
94.336624
 11
132.433716
 21
94.336624
  0
LINE
  8
LC-003-002-----0
 62
     1
  6
CONTINUOUS
 10
132.433716
 20
94.336624
 11
147.391281
 21
94.336624
  0
LINE
  8
LC-004-006-----0
 62
     2
  6
DASHED
 10
62.433723
 20
71.336624
 11
132.433716
 21
71.336624
  0
LINE
  8
LC-003-002-----0
 62
     1
  6
CONTINUOUS
 10
132.433716
 20
71.336624
 11
148.634811
 21
71.336624
  0
LINE
  8
LC-005-002-RND-0
 62
     2
  6
DASHDOT
 10
173.945618
 20
82.836624
 11
216.811386
 21
82.836624
  0
LINE
  8
LC-005-002-RND-0
 62
     2
  6
DASHDOT
 10
195.543213
 20
103.570450
 11
195.543213
 21
61.660255
  0
ARC
  8
LC-003-002-----0
 62
     1
  6
CONTINUOUS
 10
195.543213
 20
82.836624
 40
11.500000
 50
85.802797
 51
94.197202
  0
CIRCLE
  8
LC-003-002-----0
 62
     1
  6
CONTINUOUS
 10
195.543213
 20
82.836624
 40
18.500000
  0
LINE
  8
LC-004-006-----0
 62
     2
  6
DASHED
 10
211.043213
 20
85.336624
 11
213.873520
 21
85.336624
  0
LINE
  8
LC-004-006-----0
 62
     2
  6
DASHED
 10
211.043213
 20
80.336624
 11
213.873520
 21
80.336624
  0
LINE
  8
LC-004-006-----0
 62
     2
  6
DASHED
 10
197.043213
 20
101.275711
 11
197.043213
 21
97.169556
  0
LINE
  8
LC-004-006-----0
 62
     2
  6
DASHED
 10
211.043213
 20
80.336624
 11
211.043213
 21
85.336624
  0
LINE
  8
LC-004-006-----0
 62
     2
  6
DASHED
 10
194.043213
 20
101.275711
 11
194.043213
 21
97.169556
  0
LINE
  8
LC-004-006-----0
 62
     2
  6
DASHED
 10
194.043213
 20
64.397537
 11
194.043213
 21
68.503693
  0
LINE
  8
LC-004-006-----0
 62
     2
  6
DASHED
 10
197.043213
 20
64.397537
 11
197.043213
 21
68.503693
  0
LINE
  8
LC-005-002-RND-0
 62
     2
  6
DASHDOT
 10
197.221527
 20
92.354759
 11
197.754456
 21
95.377220
  0
ARC
  8
LC-003-002-----0
 62
     1
  6
CONTINUOUS
 10
197.609634
 20
94.555840
 40
1.250000
 50
191.539518
 51
328.460481
  0
ARC
  8
LC-003-002-----0
 62
     1
  6
CONTINUOUS
 10
193.476807
 20
94.555840
 40
1.250000
 50
211.539514
 51
348.460483
  0
LINE
  8
LC-005-002-RND-0
 62
     2
  6
DASHDOT
 10
193.864914
 20
92.354759
 11
193.331970
 21
95.377220
  0
LINE
  8
LC-005-002-RND-0
 62
     2
  6
DASHDOT
 10
193.864914
 20
73.318481
 11
193.331970
 21
70.296028
  0
ARC
  8
LC-003-002-----0
 62
     1
  6
CONTINUOUS
 10
193.476807
 20
71.117409
 40
1.250000
 50
11.539517
 51
148.460486
  0
ARC
  8
LC-003-002-----0
 62
     1
  6
CONTINUOUS
 10
197.609634
 20
71.117409
 40
1.250000
 50
31.539519
 51
168.460482
  0
LINE
  8
LC-005-002-RND-0
 62
     2
  6
DASHDOT
 10
197.221527
 20
73.318481
 11
197.754456
 21
70.296028
  0
ARC
  8
LC-003-002-----0
 62
     1
  6
CONTINUOUS
 10
195.543213
 20
82.836624
 40
11.500000
 50
105.802793
 51
254.197207
  0
ARC
  8
LC-003-002-----0
 62
     1
  6
CONTINUOUS
 10
195.543213
 20
82.836624
 40
11.500000
 50
285.802794
 51
74.197206
  0
ARC
  8
LC-003-002-----0
 62
     1
  6
CONTINUOUS
 10
195.543213
 20
82.836624
 40
11.500000
 50
265.802798
 51
274.197203
  0
CIRCLE
  8
LC-003-002-----0
 62
     1
  6
CONTINUOUS
 10
195.543213
 20
82.836624
 40
17.000000
  0
ARC
  8
LC-003-002-----0
 62
     1
  6
CONTINUOUS
 10
195.543213
 20
82.836624
 40
11.900000
 50
104.093428
 51
255.906572
  0
ARC
  8
LC-003-002-----0
 62
     1
  6
CONTINUOUS
 10
193.476807
 20
71.117409
 40
0.850000
 50
352.046713
 51
167.953286
  0
ARC
  8
LC-003-002-----0
 62
     1
  6
CONTINUOUS
 10
195.543213
 20
82.836624
 40
11.900000
 50
264.093427
 51
275.906574
  0
ARC
  8
LC-003-002-----0
 62
     1
  6
CONTINUOUS
 10
197.609634
 20
71.117409
 40
0.850000
 50
12.046713
 51
187.953286
  0
ARC
  8
LC-003-002-----0
 62
     1
  6
CONTINUOUS
 10
195.543213
 20
82.836624
 40
11.900000
 50
284.093423
 51
75.906577
  0
ARC
  8
LC-003-002-----0
 62
     1
  6
CONTINUOUS
 10
197.609634
 20
94.555840
 40
0.850000
 50
172.046714
 51
347.953287
  0
ARC
  8
LC-003-002-----0
 62
     1
  6
CONTINUOUS
 10
195.543213
 20
82.836624
 40
11.900000
 50
84.093426
 51
95.906573
  0
ARC
  8
LC-003-002-----0
 62
     1
  6
CONTINUOUS
 10
193.476807
 20
94.555840
 40
0.850000
 50
192.046714
 51
7.953287
  0
LINE
  8
LC-003-002-----0
 62
     1
  6
CONTINUOUS
 10
148.598053
 20
71.771271
 11
132.433716
 21
71.771271
  0
LINE
  8
LC-004-006-----0
 62
     2
  6
DASHED
 10
132.433716
 20
71.771271
 11
62.433731
 21
71.771271
  0
LINE
  8
LC-003-002-----0
 62
     1
  6
CONTINUOUS
 10
62.433723
 20
71.771271
 11
48.424759
 21
71.771271
  0
LINE
  8
LC-003-002-----0
 62
     1
  6
CONTINUOUS
 10
62.433723
 20
93.901978
 11
48.692230
 21
93.901978
  0
LINE
  8
LC-004-006-----0
 62
     2
  6
DASHED
 10
132.433716
 20
93.901978
 11
62.433731
 21
93.901978
  0
LINE
  8
LC-003-002-----0
 62
     1
  6
CONTINUOUS
 10
147.460480
 20
93.901978
 11
132.433716
 21
93.901978
  0
LINE
  8
LC-003-002-----0
 62
     1
  6
CONTINUOUS
 10
111.433723
 20
85.336624
 11
83.433723
 21
85.336624
  0
LINE
  8
LC-003-002-----0
 62
     1
  6
CONTINUOUS
 10
111.433723
 20
80.336624
 11
83.433723
 21
80.336624
  0
LINE
  8
LC-005-002-RND-0
 62
     2
  6
DASHDOT
 10
111.433723
 20
87.733597
 11
111.433723
 21
78.052574
  0
LINE
  8
LC-005-002-RND-0
 62
     2
  6
DASHDOT
 10
83.433723
 20
87.733597
 11
83.433723
 21
78.052574
  0
ARC
  8
LC-003-002-----0
 62
     1
  6
CONTINUOUS
 10
83.433723
 20
82.836624
 40
2.500000
 50
90.000003
 51
269.999997
  0
ARC
  8
LC-003-002-----0
 62
     1
  6
CONTINUOUS
 10
111.433723
 20
82.836624
 40
2.500000
 50
269.999997
 51
90.000003
  0
LINE
  8
LC-003-002-----0
 62
     1
  6
CONTINUOUS
 10
95.933723
 20
80.336624
 11
95.933723
 21
64.336624
  0
LINE
  8
LC-003-002-----0
 62
     1
  6
CONTINUOUS
 10
98.933723
 20
80.336624
 11
98.933723
 21
64.336624
  0
ENDSEC
  0
EOF
