  0
SECTION
  2
HEADER
  9
$LIMMIN
 10
267.302246
 20
213.956772
  9
$LIMMAX
 10
506.297363
 20
281.653259
  9
$EXTMIN
 10
267.302246
 20
213.956772
  9
$EXTMAX
 10
506.297363
 20
281.653259
  0
ENDSEC
  0
SECTION
  2
TABLES
  0
TABLE
  2
LTYPE
 70
     3
  0
LTYPE
  2
CONTINUOUS
 70
    64
  3
Ausgezogene Linie
 72
    65
 73
     0
 40
0.0
  0
LTYPE
  2
DASHED
 70
    64
  3
__ __ __ __ __ __ __ __ __ __ __ __ __ __ __
 72
    65
 73
     2
 40
0.75
 49
0.5
 49
-0.25
  0
LTYPE
  2
DASHDOT
 70
    64
  3
__ . __ . __ . __ . __ . __ . __ . __ . __ . __
 72
    65
 73
     4
 40
1.0
 49
0.5
 49
-0.25
 49
0.0
 49
-0.25
  0
ENDTAB
  0
TABLE
  2
LAYER
 70
     4
  0
LAYER
  2
LC-003-002-----0
 70
    64
 62
     7
  6
CONTINUOUS
  0
LAYER
  2
LC-005-002-RND-0
 70
    64
 62
     7
  6
CONTINUOUS
  0
LAYER
  2
LC-004-006-----0
 70
    64
 62
     7
  6
CONTINUOUS
  0
LAYER
  2
LC-006-012-----0
 70
    64
 62
     7
  6
CONTINUOUS
  0
ENDTAB
  0
TABLE
  2
STYLE
 70
     1
  0
STYLE
  2
TXT8
 70
    64
 40
0.0
 41
1.0
 50
0.0
 71
     0
 42
3.500000
  3
TXT8
  4

  0
ENDTAB
  0
ENDSEC
  0
SECTION
  2
BLOCKS
  0
ENDSEC
  0
SECTION
  2
ENTITIES
  0
LINE
  8
LC-005-002-RND-0
 62
     2
  6
DASHDOT
 10
267.302246
 20
247.814850
 11
411.341736
 21
247.814850
  0
LINE
  8
LC-003-002-----0
 62
     1
  6
CONTINUOUS
 10
290.312347
 20
277.814850
 11
301.912354
 21
277.814850
  0
LINE
  8
LC-003-002-----0
 62
     1
  6
CONTINUOUS
 10
290.312347
 20
217.814850
 11
301.912354
 21
217.814850
  0
LINE
  8
LC-003-002-----0
 62
     1
  6
CONTINUOUS
 10
288.812347
 20
276.314850
 11
288.812347
 21
219.314850
  0
LINE
  8
LC-003-002-----0
 62
     1
  6
CONTINUOUS
 10
388.812347
 20
276.314850
 11
388.812347
 21
219.314850
  0
ARC
  8
LC-003-002-----0
 62
     1
  6
CONTINUOUS
 10
290.312347
 20
276.314850
 40
1.500000
 50
90.000003
 51
180.000009
  0
ARC
  8
LC-003-002-----0
 62
     1
  6
CONTINUOUS
 10
290.312347
 20
219.314850
 40
1.500000
 50
180.000009
 51
269.999997
  0
ARC
  8
LC-003-002-----0
 62
     1
  6
CONTINUOUS
 10
387.312347
 20
219.314850
 40
1.500000
 50
269.999997
 51
0.000000
  0
ARC
  8
LC-003-002-----0
 62
     1
  6
CONTINUOUS
 10
387.312347
 20
276.314850
 40
1.500000
 50
0.000000
 51
90.000003
  0
LINE
  8
LC-005-002-RND-0
 62
     2
  6
DASHDOT
 10
338.812347
 20
279.814850
 11
338.812347
 21
215.627457
  0
LINE
  8
LC-003-002-----0
 62
     1
  6
CONTINUOUS
 10
373.562347
 20
277.814850
 11
373.562347
 21
217.814850
  0
LINE
  8
LC-003-002-----0
 62
     1
  6
CONTINUOUS
 10
375.712341
 20
277.814850
 11
375.712341
 21
217.814850
  0
LINE
  8
LC-003-002-----0
 62
     1
  6
CONTINUOUS
 10
304.062347
 20
277.814850
 11
304.062347
 21
217.814850
  0
LINE
  8
LC-003-002-----0
 62
     1
  6
CONTINUOUS
 10
301.912354
 20
277.814850
 11
301.912354
 21
217.814850
  0
LINE
  8
LC-003-002-----0
 62
     1
  6
CONTINUOUS
 10
375.712341
 20
277.814850
 11
387.312347
 21
277.814850
  0
LINE
  8
LC-003-002-----0
 62
     1
  6
CONTINUOUS
 10
373.562347
 20
276.314850
 11
375.712341
 21
276.314850
  0
LINE
  8
LC-003-002-----0
 62
     1
  6
CONTINUOUS
 10
304.062347
 20
276.314850
 11
301.912354
 21
276.314850
  0
LINE
  8
LC-003-002-----0
 62
     1
  6
CONTINUOUS
 10
373.562347
 20
219.314850
 11
375.712341
 21
219.314850
  0
LINE
  8
LC-003-002-----0
 62
     1
  6
CONTINUOUS
 10
304.062347
 20
219.314850
 11
301.912354
 21
219.314850
  0
LINE
  8
LC-003-002-----0
 62
     1
  6
CONTINUOUS
 10
375.712341
 20
217.814850
 11
387.312347
 21
217.814850
  0
LINE
  8
LC-003-002-----0
 62
     1
  6
CONTINUOUS
 10
304.062347
 20
217.814850
 11
336.812347
 21
217.814850
  0
LINE
  8
LC-003-002-----0
 62
     1
  6
CONTINUOUS
 10
304.062347
 20
277.814850
 11
336.812347
 21
277.814850
  0
LINE
  8
LC-003-002-----0
 62
     1
  6
CONTINUOUS
 10
340.812347
 20
277.814850
 11
340.812347
 21
252.814850
  0
LINE
  8
LC-003-002-----0
 62
     1
  6
CONTINUOUS
 10
336.812347
 20
277.814850
 11
336.812347
 21
252.814850
  0
LINE
  8
LC-003-002-----0
 62
     1
  6
CONTINUOUS
 10
340.812347
 20
277.814850
 11
373.562347
 21
277.814850
  0
ARC
  8
LC-003-002-----0
 62
     1
  6
CONTINUOUS
 10
338.812347
 20
277.814850
 40
2.000000
 50
180.000009
 51
0.000000
  0
ARC
  8
LC-003-002-----0
 62
     1
  6
CONTINUOUS
 10
338.812347
 20
217.814850
 40
2.000000
 50
0.000000
 51
180.000009
  0
LINE
  8
LC-003-002-----0
 62
     1
  6
CONTINUOUS
 10
340.812347
 20
217.814850
 11
373.562347
 21
217.814850
  0
LINE
  8
LC-003-002-----0
 62
     1
  6
CONTINUOUS
 10
272.024109
 20
266.514862
 11
288.812347
 21
266.514862
  0
LINE
  8
LC-003-002-----0
 62
     1
  6
CONTINUOUS
 10
270.952362
 20
229.114853
 11
288.812347
 21
229.114853
  0
LINE
  8
LC-006-012-----0
 62
     2
  6
CONTINUOUS
 10
270.952362
 20
229.114853
 11
271.677643
 21
234.542389
  0
LINE
  8
LC-006-012-----0
 62
     2
  6
CONTINUOUS
 10
271.677643
 20
234.542389
 11
270.970184
 21
246.669189
  0
LINE
  8
LC-006-012-----0
 62
     2
  6
CONTINUOUS
 10
270.970184
 20
246.669189
 11
273.092560
 21
257.128906
  0
LINE
  8
LC-006-012-----0
 62
     2
  6
CONTINUOUS
 10
273.092560
 20
257.128906
 11
272.024109
 21
266.514862
  0
LINE
  8
LC-006-012-----0
 62
     2
  6
CONTINUOUS
 10
407.708313
 20
229.114853
 11
408.947266
 21
236.318314
  0
LINE
  8
LC-006-012-----0
 62
     2
  6
CONTINUOUS
 10
408.947266
 20
236.318314
 11
407.815308
 21
245.833466
  0
LINE
  8
LC-006-012-----0
 62
     2
  6
CONTINUOUS
 10
407.815308
 20
245.833466
 11
408.947266
 21
257.546753
  0
LINE
  8
LC-006-012-----0
 62
     2
  6
CONTINUOUS
 10
408.947266
 20
257.546753
 11
408.095490
 21
266.514862
  0
LINE
  8
LC-004-006-----0
 62
     2
  6
DASHED
 10
288.812347
 20
266.514862
 11
388.812347
 21
266.514862
  0
LINE
  8
LC-003-002-----0
 62
     1
  6
CONTINUOUS
 10
388.812347
 20
266.514862
 11
408.095490
 21
266.514862
  0
LINE
  8
LC-004-006-----0
 62
     2
  6
DASHED
 10
288.812347
 20
229.114853
 11
388.812347
 21
229.114853
  0
LINE
  8
LC-003-002-----0
 62
     1
  6
CONTINUOUS
 10
388.812347
 20
229.114853
 11
407.708313
 21
229.114853
  0
LINE
  8
LC-005-002-RND-0
 62
     2
  6
DASHDOT
 10
438.951965
 20
247.814850
 11
506.297363
 21
247.814850
  0
LINE
  8
LC-005-002-RND-0
 62
     2
  6
DASHDOT
 10
473.107452
 20
281.653259
 11
473.107452
 21
213.956772
  0
CIRCLE
  8
LC-003-002-----0
 62
     1
  6
CONTINUOUS
 10
473.107452
 20
247.814850
 40
30.000000
  0
CIRCLE
  8
LC-003-002-----0
 62
     1
  6
CONTINUOUS
 10
473.107452
 20
247.814850
 40
28.000000
  0
LINE
  8
LC-004-006-----0
 62
     2
  6
DASHED
 10
498.607452
 20
252.814850
 11
502.687866
 21
252.814850
  0
LINE
  8
LC-004-006-----0
 62
     2
  6
DASHED
 10
498.607452
 20
242.814850
 11
502.687866
 21
242.814850
  0
LINE
  8
LC-004-006-----0
 62
     2
  6
DASHED
 10
475.107452
 20
277.748108
 11
475.107452
 21
270.053253
  0
LINE
  8
LC-004-006-----0
 62
     2
  6
DASHED
 10
498.607452
 20
242.814850
 11
498.607452
 21
252.814850
  0
LINE
  8
LC-004-006-----0
 62
     2
  6
DASHED
 10
471.107452
 20
277.748108
 11
471.107452
 21
270.053253
  0
LINE
  8
LC-004-006-----0
 62
     2
  6
DASHED
 10
471.107452
 20
217.881592
 11
471.107452
 21
225.576447
  0
LINE
  8
LC-004-006-----0
 62
     2
  6
DASHED
 10
475.107452
 20
217.881592
 11
475.107452
 21
225.576447
  0
LINE
  8
LC-005-002-RND-0
 62
     2
  6
DASHDOT
 10
475.990051
 20
264.162933
 11
476.648804
 21
267.898804
  0
ARC
  8
LC-003-002-----0
 62
     1
  6
CONTINUOUS
 10
476.406769
 20
266.526215
 40
1.500000
 50
183.762323
 51
336.237681
  0
LINE
  8
LC-005-002-RND-0
 62
     2
  6
DASHDOT
 10
470.224854
 20
264.162933
 11
469.566132
 21
267.898804
  0
ARC
  8
LC-003-002-----0
 62
     1
  6
CONTINUOUS
 10
469.808136
 20
266.526215
 40
1.500000
 50
203.762319
 51
356.237681
  0
LINE
  8
LC-005-002-RND-0
 62
     2
  6
DASHDOT
 10
470.224854
 20
231.466782
 11
469.566132
 21
227.730896
  0
ARC
  8
LC-003-002-----0
 62
     1
  6
CONTINUOUS
 10
469.808136
 20
229.103500
 40
1.500000
 50
3.762319
 51
156.237681
  0
LINE
  8
LC-005-002-RND-0
 62
     2
  6
DASHDOT
 10
475.990051
 20
231.466782
 11
476.648804
 21
227.730896
  0
ARC
  8
LC-003-002-----0
 62
     1
  6
CONTINUOUS
 10
476.406769
 20
229.103500
 40
1.500000
 50
23.762319
 51
176.237677
  0
ARC
  8
LC-003-002-----0
 62
     1
  6
CONTINUOUS
 10
473.107452
 20
247.814850
 40
18.700001
 50
84.468499
 51
95.531500
  0
ARC
  8
LC-003-002-----0
 62
     1
  6
CONTINUOUS
 10
473.107452
 20
247.814850
 40
18.700001
 50
264.468500
 51
275.531501
  0
ARC
  8
LC-003-002-----0
 62
     1
  6
CONTINUOUS
 10
473.107452
 20
247.814850
 40
18.700001
 50
284.468503
 51
75.531497
  0
ARC
  8
LC-003-002-----0
 62
     1
  6
CONTINUOUS
 10
473.107452
 20
247.814850
 40
18.700001
 50
104.468502
 51
255.531498
  0
LINE
  8
LC-003-002-----0
 62
     1
  6
CONTINUOUS
 10
407.810333
 20
229.707916
 11
388.812347
 21
229.707916
  0
ARC
  8
LC-003-002-----0
 62
     1
  6
CONTINUOUS
 10
473.107452
 20
247.814850
 40
19.200001
 50
102.939536
 51
257.060464
  0
ARC
  8
LC-003-002-----0
 62
     1
  6
CONTINUOUS
 10
469.808136
 20
229.103500
 40
1.000000
 50
339.936656
 51
180.063338
  0
ARC
  8
LC-003-002-----0
 62
     1
  6
CONTINUOUS
 10
473.107452
 20
247.814850
 40
19.200001
 50
262.939535
 51
277.060466
  0
ARC
  8
LC-003-002-----0
 62
     1
  6
CONTINUOUS
 10
476.406769
 20
229.103500
 40
1.000000
 50
359.936656
 51
200.063348
  0
ARC
  8
LC-003-002-----0
 62
     1
  6
CONTINUOUS
 10
473.107452
 20
247.814850
 40
19.200001
 50
282.939531
 51
77.060469
  0
ARC
  8
LC-003-002-----0
 62
     1
  6
CONTINUOUS
 10
476.406769
 20
266.526215
 40
1.000000
 50
159.936652
 51
0.063344
  0
ARC
  8
LC-003-002-----0
 62
     1
  6
CONTINUOUS
 10
473.107452
 20
247.814850
 40
19.200001
 50
82.939534
 51
97.060465
  0
ARC
  8
LC-003-002-----0
 62
     1
  6
CONTINUOUS
 10
469.808136
 20
266.526215
 40
1.000000
 50
179.936662
 51
20.063344
  0
LINE
  8
LC-004-006-----0
 62
     2
  6
DASHED
 10
388.812347
 20
229.707916
 11
288.812347
 21
229.707916
  0
LINE
  8
LC-003-002-----0
 62
     1
  6
CONTINUOUS
 10
288.812347
 20
229.707916
 11
271.031616
 21
229.707916
  0
LINE
  8
LC-003-002-----0
 62
     1
  6
CONTINUOUS
 10
288.812347
 20
265.921783
 11
272.091644
 21
265.921783
  0
LINE
  8
LC-004-006-----0
 62
     2
  6
DASHED
 10
388.812347
 20
265.921783
 11
288.812347
 21
265.921783
  0
LINE
  8
LC-003-002-----0
 62
     1
  6
CONTINUOUS
 10
408.151794
 20
265.921783
 11
388.812347
 21
265.921783
  0
LINE
  8
LC-003-002-----0
 62
     1
  6
CONTINUOUS
 10
361.312347
 20
252.814850
 11
316.312347
 21
252.814850
  0
LINE
  8
LC-003-002-----0
 62
     1
  6
CONTINUOUS
 10
361.312347
 20
242.814850
 11
316.312347
 21
242.814850
  0
LINE
  8
LC-005-002-RND-0
 62
     2
  6
DASHDOT
 10
361.312347
 20
256.115021
 11
361.312347
 21
239.258621
  0
ARC
  8
LC-003-002-----0
 62
     1
  6
CONTINUOUS
 10
361.312347
 20
247.814850
 40
5.000000
 50
269.999997
 51
90.000003
  0
LINE
  8
LC-005-002-RND-0
 62
     2
  6
DASHDOT
 10
316.312347
 20
256.115021
 11
316.312347
 21
239.258621
  0
ARC
  8
LC-003-002-----0
 62
     1
  6
CONTINUOUS
 10
316.312347
 20
247.814850
 40
5.000000
 50
90.000003
 51
269.999997
  0
LINE
  8
LC-003-002-----0
 62
     1
  6
CONTINUOUS
 10
336.812347
 20
242.814850
 11
336.812347
 21
217.814850
  0
LINE
  8
LC-003-002-----0
 62
     1
  6
CONTINUOUS
 10
340.812347
 20
242.814850
 11
340.812347
 21
217.814850
  0
ENDSEC
  0
EOF
