  0
SECTION
  2
HEADER
  9
$LIMMIN
 10
117.662956
 20
61.005077
  9
$LIMMAX
 10
287.782898
 20
101.005081
  9
$EXTMIN
 10
117.662956
 20
61.005077
  9
$EXTMAX
 10
287.782898
 20
101.005081
  0
ENDSEC
  0
SECTION
  2
TABLES
  0
TABLE
  2
LTYPE
 70
     3
  0
LTYPE
  2
CONTINUOUS
 70
    64
  3
Ausgezogene Linie
 72
    65
 73
     0
 40
0.0
  0
LTYPE
  2
DASHED
 70
    64
  3
__ __ __ __ __ __ __ __ __ __ __ __ __ __ __
 72
    65
 73
     2
 40
0.75
 49
0.5
 49
-0.25
  0
LTYPE
  2
DASHDOT
 70
    64
  3
__ . __ . __ . __ . __ . __ . __ . __ . __ . __
 72
    65
 73
     4
 40
1.0
 49
0.5
 49
-0.25
 49
0.0
 49
-0.25
  0
ENDTAB
  0
TABLE
  2
LAYER
 70
     4
  0
LAYER
  2
LC-003-002-----0
 70
    64
 62
     7
  6
CONTINUOUS
  0
LAYER
  2
LC-004-006-----0
 70
    64
 62
     7
  6
CONTINUOUS
  0
LAYER
  2
LC-006-012-----0
 70
    64
 62
     7
  6
CONTINUOUS
  0
LAYER
  2
LC-007-004-----0
 70
    64
 62
     7
  6
CONTINUOUS
  0
ENDTAB
  0
TABLE
  2
STYLE
 70
     1
  0
STYLE
  2
TXT8
 70
    64
 40
0.0
 41
1.0
 50
0.0
 71
     0
 42
3.500000
  3
TXT8
  4

  0
ENDTAB
  0
ENDSEC
  0
SECTION
  2
BLOCKS
  0
ENDSEC
  0
SECTION
  2
ENTITIES
  0
LINE
  8
LC-004-006-----0
 62
     2
  6
DASHDOT
 10
117.662956
 20
81.005081
 11
287.782898
 21
81.005081
  0
LINE
  8
LC-003-002-----0
 62
     1
  6
CONTINUOUS
 10
145.274139
 20
101.005081
 11
159.174149
 21
101.005081
  0
LINE
  8
LC-003-002-----0
 62
     1
  6
CONTINUOUS
 10
145.274139
 20
61.005077
 11
159.174149
 21
61.005077
  0
LINE
  8
LC-003-002-----0
 62
     1
  6
CONTINUOUS
 10
144.024139
 20
99.755081
 11
144.024139
 21
62.255074
  0
LINE
  8
LC-003-002-----0
 62
     1
  6
CONTINUOUS
 10
256.024139
 20
99.755081
 11
256.024139
 21
62.255074
  0
LINE
  8
LC-003-002-----0
 62
     1
  6
CONTINUOUS
 10
123.832092
 20
93.505081
 11
144.024139
 21
93.505081
  0
LINE
  8
LC-003-002-----0
 62
     1
  6
CONTINUOUS
 10
122.369484
 20
68.505081
 11
144.024139
 21
68.505081
  0
LINE
  8
LC-007-004-----0
 62
     2
  6
CONTINUOUS
 10
122.369484
 20
68.505081
 11
124.047005
 21
75.198929
  0
LINE
  8
LC-007-004-----0
 62
     2
  6
CONTINUOUS
 10
124.047005
 20
75.198929
 11
122.473381
 21
85.708153
  0
LINE
  8
LC-007-004-----0
 62
     2
  6
CONTINUOUS
 10
122.473381
 20
85.708153
 11
123.832092
 21
93.505081
  0
LINE
  8
LC-007-004-----0
 62
     2
  6
CONTINUOUS
 10
282.330566
 20
68.505081
 11
283.438843
 21
73.458420
  0
LINE
  8
LC-007-004-----0
 62
     2
  6
CONTINUOUS
 10
283.438843
 20
73.458420
 11
281.767181
 21
86.455650
  0
LINE
  8
LC-007-004-----0
 62
     2
  6
CONTINUOUS
 10
281.767181
 20
86.455650
 11
282.457794
 21
93.505081
  0
LINE
  8
LC-006-012-----0
 62
     2
  6
DASHED
 10
144.024139
 20
93.505081
 11
256.024139
 21
93.505081
  0
LINE
  8
LC-003-002-----0
 62
     1
  6
CONTINUOUS
 10
256.024139
 20
93.505081
 11
282.457794
 21
93.505081
  0
LINE
  8
LC-006-012-----0
 62
     2
  6
DASHED
 10
144.024139
 20
68.505081
 11
256.024139
 21
68.505081
  0
LINE
  8
LC-003-002-----0
 62
     1
  6
CONTINUOUS
 10
256.024139
 20
68.505081
 11
282.330566
 21
68.505081
  0
LINE
  8
LC-003-002-----0
 62
     1
  6
CONTINUOUS
 10
239.024139
 20
61.005077
 11
239.024139
 21
101.005081
  0
LINE
  8
LC-003-002-----0
 62
     1
  6
CONTINUOUS
 10
240.874146
 20
61.005077
 11
240.874146
 21
101.005081
  0
LINE
  8
LC-003-002-----0
 62
     1
  6
CONTINUOUS
 10
240.874146
 20
101.005081
 11
254.774139
 21
101.005081
  0
LINE
  8
LC-003-002-----0
 62
     1
  6
CONTINUOUS
 10
239.024139
 20
99.755081
 11
240.874146
 21
99.755081
  0
LINE
  8
LC-003-002-----0
 62
     1
  6
CONTINUOUS
 10
240.874146
 20
61.005077
 11
254.774139
 21
61.005077
  0
LINE
  8
LC-003-002-----0
 62
     1
  6
CONTINUOUS
 10
239.024139
 20
62.255077
 11
240.874146
 21
62.255077
  0
LINE
  8
LC-003-002-----0
 62
     1
  6
CONTINUOUS
 10
161.024139
 20
61.005077
 11
161.024139
 21
101.005081
  0
LINE
  8
LC-003-002-----0
 62
     1
  6
CONTINUOUS
 10
159.174149
 20
61.005077
 11
159.174149
 21
101.005081
  0
LINE
  8
LC-003-002-----0
 62
     1
  6
CONTINUOUS
 10
161.024139
 20
99.755081
 11
159.174149
 21
99.755081
  0
LINE
  8
LC-003-002-----0
 62
     1
  6
CONTINUOUS
 10
161.024139
 20
62.255077
 11
159.174149
 21
62.255077
  0
LINE
  8
LC-003-002-----0
 62
     1
  6
CONTINUOUS
 10
161.024139
 20
61.005077
 11
239.024139
 21
61.005077
  0
LINE
  8
LC-003-002-----0
 62
     1
  6
CONTINUOUS
 10
161.024139
 20
101.005081
 11
239.024139
 21
101.005081
  0
ARC
  8
LC-003-002-----0
 62
     1
  6
CONTINUOUS
 10
145.274139
 20
99.755081
 40
1.250000
 50
90.000003
 51
180.000009
  0
ARC
  8
LC-003-002-----0
 62
     1
  6
CONTINUOUS
 10
145.274139
 20
62.255077
 40
1.250000
 50
180.000009
 51
269.999997
  0
ARC
  8
LC-003-002-----0
 62
     1
  6
CONTINUOUS
 10
254.774139
 20
62.255077
 40
1.250000
 50
269.999997
 51
0.000000
  0
ARC
  8
LC-003-002-----0
 62
     1
  6
CONTINUOUS
 10
254.774139
 20
99.755081
 40
1.250000
 50
0.000000
 51
90.000003
  0
ENDSEC
  0
EOF
