  0
SECTION
  2
HEADER
  9
$ACADVER
  1
AC1014
  9
$ACADMAINTVER
 70
           0
  9
$DWGCODEPAGE
  3
DOS850
  9
$INSBASE
 10
0.0
 20
0.0
 30
0.0
  9
$EXTMIN
 10
45.760891
 20
85.172745
 30
0.0
  9
$EXTMAX
 10
316.319336
 20
154.163803
 30
0.0
  9
$LIMMIN
 10
45.760891
 20
85.172745
  9
$LIMMAX
 10
316.319336
 20
154.163803
  9
$ORTHOMODE
 70
           0
  9
$REGENMODE
 70
           1
  9
$FILLMODE
 70
           1
  9
$QTEXTMODE
 70
           0
  9
$MIRRTEXT
 70
           1
  9
$DRAGMODE
 70
           2
  9
$LTSCALE
 40
5.0
  9
$OSMODE
 70
           0
  9
$ATTMODE
 70
           1
  9
$TEXTSIZE
 40
0.2
  9
$TRACEWID
 40
0.05
  9
$TEXTSTYLE
  7
TXT
  9
$CLAYER
  8
0
  9
$CELTYPE
  6
CONTINUOUS
  9
$CECOLOR
 62
         256
  9
$CELTSCALE
 40
1.0
  9
$DELOBJ
 70
           1
  9
$DISPSILH
 70
           0
  9
$DIMSCALE
 40
1.0
  9
$DIMASZ
 40
3.5
  9
$DIMEXO
 40
0.0625
  9
$DIMDLI
 40
0.38
  9
$DIMRND
 40
0.0
  9
$DIMDLE
 40
0.0
  9
$DIMEXE
 40
0.18
  9
$DIMTP
 40
0.0
  9
$DIMTM
 40
0.0
  9
$DIMTXT
 40
3.5
  9
$DIMCEN
 40
0.09
  9
$DIMTSZ
 40
0.0
  9
$DIMTOL
 70
           0
  9
$DIMLIM
 70
           0
  9
$DIMTIH
 70
           1
  9
$DIMTOH
 70
           1
  9
$DIMSE1
 70
           0
  9
$DIMSE2
 70
           0
  9
$DIMTAD
 70
           0
  9
$DIMZIN
 70
           0
  9
$DIMBLK
  1

  9
$DIMASO
 70
           1
  9
$DIMSHO
 70
           1
  9
$DIMPOST
  1

  9
$DIMAPOST
  1

  9
$DIMALT
 70
           0
  9
$DIMALTD
 70
           2
  9
$DIMALTF
 40
25.4
  9
$DIMLFAC
 40
1.0
  9
$DIMTOFL
 70
           0
  9
$DIMTVP
 40
0.0
  9
$DIMTIX
 70
           0
  9
$DIMSOXD
 70
           0
  9
$DIMSAH
 70
           0
  9
$DIMBLK1
  1

  9
$DIMBLK2
  1

  9
$DIMSTYLE
  2
STANDARD
  9
$DIMCLRD
 70
           0
  9
$DIMCLRE
 70
           0
  9
$DIMCLRT
 70
           0
  9
$DIMTFAC
 40
1.0
  9
$DIMGAP
 40
0.09
  9
$DIMJUST
 70
           0
  9
$DIMSD1
 70
           0
  9
$DIMSD2
 70
           0
  9
$DIMTOLJ
 70
           1
  9
$DIMTZIN
 70
           0
  9
$DIMALTZ
 70
           0
  9
$DIMALTTZ
 70
           0
  9
$DIMFIT
 70
           3
  9
$DIMUPT
 70
           0
  9
$DIMUNIT
 70
           2
  9
$DIMDEC
 70
           4
  9
$DIMTDEC
 70
           4
  9
$DIMALTU
 70
           2
  9
$DIMALTTD
 70
           2
  9
$DIMTXSTY
  7
TXT
  9
$DIMAUNIT
 70
           0
  9
$LUNITS
 70
           2
  9
$LUPREC
 70
           2
  9
$SKETCHINC
 40
0.1
  9
$FILLETRAD
 40
0.0
  9
$AUNITS
 70
           0
  9
$AUPREC
 70
           2
  9
$MENU
  1
acad
  9
$ELEVATION
 40
0.0
  9
$PELEVATION
 40
0.0
  9
$THICKNESS
 40
0.0
  9
$LIMCHECK
 70
           0
  9
$BLIPMODE
 70
           1
  9
$CHAMFERA
 40
0.0
  9
$CHAMFERB
 40
0.0
  9
$CHAMFERC
 40
0.0
  9
$CHAMFERD
 40
0.0
  9
$SKPOLY
 70
           0
  9
$TDCREATE
 40
0.000000000
  9
$TDUPDATE
 40
0.000000000
  9
$TDINDWG
 40
0.0000000000
  9
$TDUSRTIMER
 40
0.0000000000
  9
$USRTIMER
 70
           1
  9
$ANGBASE
 50
0.0
  9
$ANGDIR
 70
           0
  9
$PDMODE
 70
           2
  9
$PDSIZE
 40
0.5
  9
$PLINEWID
 40
0.0
  9
$COORDS
 70
           0
  9
$SPLFRAME
 70
           0
  9
$SPLINETYPE
 70
           6
  9
$SPLINESEGS
 70
           8
  9
$ATTDIA
 70
           0
  9
$ATTREQ
 70
           1
  9
$HANDLING
 70
           1
  9
$HANDSEED
  5
EF
  9
$SURFTAB1
 70
           6
  9
$SURFTAB2
 70
           6
  9
$SURFTYPE
 70
           6
  9
$SURFU
 70
           6
  9
$SURFV
 70
           6
  9
$UCSNAME
  2

  9
$UCSORG
 10
0.0
 20
0.0
 30
0.0
  9
$UCSXDIR
 10
1.0
 20
0.0
 30
0.0
  9
$UCSYDIR
 10
0.0
 20
1.0
 30
0.0
  9
$PUCSNAME
  2

  9
$PUCSORG
 10
0.0
 20
0.0
 30
0.0
  9
$PUCSXDIR
 10
1.0
 20
0.0
 30
0.0
  9
$PUCSYDIR
 10
0.0
 20
1.0
 30
0.0
  9
$USERI1
 70
           0
  9
$USERI2
 70
           0
  9
$USERI3
 70
           0
  9
$USERI4
 70
           0
  9
$USERI5
 70
           0
  9
$USERR1
 40
0.0
  9
$USERR2
 40
0.0
  9
$USERR3
 40
0.0
  9
$USERR4
 40
0.0
  9
$USERR5
 40
0.0
  9
$WORLDVIEW
 70
           1
  9
$SHADEDGE
 70
           3
  9
$SHADEDIF
 70
          70
  9
$TILEMODE
 70
           1
  9
$MAXACTVP
 70
          16
  9
$PINSBASE
 10
0.0
 20
0.0
 30
0.0
  9
$PLIMCHECK
 70
           0
  9
$PEXTMIN
 10
1.000000000000E+20
 20
1.000000000000E+20
 30
1.000000000000E+20
  9
$PEXTMAX
 10
-1.000000000000E+20
 20
-1.000000000000E+20
 30
-1.000000000000E+20
  9
$PLIMMIN
 10
0.0
 20
0.0
  9
$PLIMMAX
 10
12.0
 20
9.0
  9
$UNITMODE
 70
           0
  9
$VISRETAIN
 70
           0
  9
$PLINEGEN
 70
           1
  9
$PSLTSCALE
 70
           0
  9
$TREEDEPTH
 70
        3020
  9
$PICKSTYLE
 70
           1
  9
$CMLSTYLE
  2
STANDARD
  9
$CMLJUST
 70
           0
  9
$CMLSCALE
 40
1.0
  9
$PROXYGRAPHICS
 70
           0
  9
$MEASUREMENT
 70
           0
  0
ENDSEC
  0
SECTION
  2
CLASSES
  0
CLASS
  1
LWPOLYLINE
  2
AcDbPolyline
  3
"AutoCAD"
 90
        0
280
           0
281
           1
  0
CLASS
  1
IMAGE
  2
AcDbRasterImage
  3
ISM
 90
      127
280
           0
281
           1
  0
CLASS
  1
OLE2FRAME
  2
AcDbOle2Frame
  3
""
 90
        0
280
           0
281
           1
  0
CLASS
  1
HATCH
  2
AcDbHatch
  3
"ACAD_SEDONA"
 90
        0
280
           0
281
           1
  0
CLASS
  1
DICTIONARYVAR
  2
AcDbDictionaryVar
  3
"AutoCAD"
 90
        0
280
           0
281
           0
  0
CLASS
  1
RASTERVARIABLES
  2
AcDbRasterVariables
  3
ISM
 90
        0
280
           0
281
           0
  0
CLASS
  1
IMAGEDEF
  2
AcDbRasterImageDef
  3
ISM
 90
        0
280
           0
281
           0
  0
CLASS
  1
IMAGEDEF_REACTOR
  2
AcDbRasterImageDefReactor
  3
ISM
 90
        1
280
           0
281
           0
  0
CLASS
  1
IDBUFFER
  2
AcDbIdBuffer
  3
"Acad"
 90
        0
280
           0
281
           0
  0
CLASS
  1
SPATIAL_FILTER
  2
AcDbSpatialFilter
  3
"Acad"
 90
        0
280
           0
281
           0
  0
CLASS
  1
XRECORD
  2
AcDbXrecord
  3
"<Built In>"
 90
        0
280
           0
281
           0
  0
CLASS
  1
SORTENTSTABLE
  2
AcDbSortentsTable
  3
"AutoCAD"
 90
        0
280
           0
281
           0
  0
CLASS
  1
LAYER_INDEX
  2
AcDbLayerIndex
  3
"Acad"
 90
        0
280
           0
281
           0
  0
CLASS
  1
SPATIAL_INDEX
  2
AcDbSpatialIndex
  3
"Acad"
 90
        0
280
           0
281
           0
  0
CLASS
  1
OBJECT_PTR
  2
CAseDLPNTableRecord
  3
"ASE-LPNTableRecord"
 90
        1
280
           0
281
           0
  0
CLASS
  1
LAYOUT
  2
AcDbLayout
  3
"AutoCAD 2000"
 90
        1
280
           0
281
           0
  0
CLASS
  1
PLOTSETTINGS
  2
AcDbPlotSettings
  3
"AutoCAD 2000"
 90
        1
280
           0
281
           0
  0
CLASS
  1
ACDBDICTIONARYWDFLT
  2
AcDbDictionaryWithDefault
  3
"AutoCAD 2000"
 90
        1
280
           0
281
           0
  0
CLASS
  1
ACDBPLACEHOLDER
  2
AcDbPlaceHolder
  3
"AutoCAD 2000"
 90
        1
280
           0
281
           0
  0
CLASS
  1
VBA_PROJECT
  2
AcDbVbaProject
  3
"acadvba"
 90
        1
280
           0
281
           0
  0
CLASS
  1
WIPEOUT
  2
AcDbWipeout
  3
WipeOut|AutoCAD Express Tool|expresstools@autodesk.com
 90
      127
280
           0
281
           1
  0
CLASS
  1
WIPEOUTVARIABLES
  2
AcDbWipeoutVariables
  3
WipeOut|AutoCAD Express Tool|expresstools@autodesk.com
 90
        0
280
           0
281
           0
  0
CLASS
  1
RTEXT
  2
RText
  3
RText|AutoCAD Express Tool|expresstools@autodesk.com
 90
        0
280
           0
281
           1
  0
CLASS
  1
ARCALIGNEDTEXT
  2
AcDbArcAlignedText
  3
ATEXT|AutoCAD Express Tool|expresstools@autodesk.com
 90
        0
280
           0
281
           1
  0
ENDSEC
  0
SECTION
  2
TABLES
  0
TABLE
  2
VPORT
  5
7
100
AcDbSymbolTable
 70
           1
  0
VPORT
  5
15
100
AcDbSymbolTableRecord
100
AcDbViewportTableRecord
  2
*ACTIVE
 70
           0
 10
0.0
 20
0.0
 11
1.0
 21
1.0
 12
6.591288
 22
4.579184
 13
0.0
 23
0.0
 14
1.0
 24
1.0
 15
0.0
 25
0.0
 16
0.0
 26
0.0
 36
1.0
 17
0.0
 27
0.0
 37
0.0
 40
9.158369
 41
0.688564
 42
50.0
 43
0.0
 44
0.0
 50
0.0
 51
0.0
 71
           0
 72
         100
 73
           1
 74
           1
 75
           0
 76
           0
 77
           0
 78
           0
  0
ENDTAB
  0
TABLE
  2
LTYPE
  5
4
100
AcDbSymbolTable
 70
           6
  0
LTYPE
  5
11
100
AcDbSymbolTableRecord
100
AcDbLinetypeTableRecord
  2
BYBLOCK
 70
          64
  3

 72
          65
 73
           0
 40
0.0
  0
LTYPE
  5
12
100
AcDbSymbolTableRecord
100
AcDbLinetypeTableRecord
  2
BYLAYER
 70
          64
  3

 72
          65
 73
           0
 40
0.0
  0
LTYPE
  5
13
100
AcDbSymbolTableRecord
100
AcDbLinetypeTableRecord
  2
CONTINUOUS
 70
          64
  3
Solid line
 72
          65
 73
           0
 40
0.0
  0
LTYPE
  5
1D
100
AcDbSymbolTableRecord
100
AcDbLinetypeTableRecord
  2
AUSGEZOGEN
 70
           0
  3

 72
          65
 73
           2
 40
0.5
 49
0.25
 74
           0
 49
-0.25
 74
           0
  0
LTYPE
  5
1E
100
AcDbSymbolTableRecord
100
AcDbLinetypeTableRecord
  2
STRICHLINIE
 70
           0
  3

 72
          65
 73
           2
 40
0.5
 49
0.25
 74
           0
 49
-0.25
 74
           0
  0
LTYPE
  5
1F
100
AcDbSymbolTableRecord
100
AcDbLinetypeTableRecord
  2
STRICHPUNKT
 70
           0
  3

 72
          65
 73
           4
 40
1.0
 49
0.5
 74
           0
 49
-0.25
 74
           0
 49
0.0
 74
           0
 49
-0.25
 74
           0
  0
ENDTAB
  0
TABLE
  2
LAYER
  5
2
100
AcDbSymbolTable
 70
           5
  0
LAYER
  5
14
100
AcDbSymbolTableRecord
100
AcDbLayerTableRecord
  2
0
 70
           0
 62
           7
  6
CONTINUOUS
  0
LAYER
  5
20
100
AcDbSymbolTableRecord
100
AcDbLayerTableRecord
  2
LC-003-002-----0
 70
           0
 62
           7
  6
CONTINUOUS
  0
LAYER
  5
21
100
AcDbSymbolTableRecord
100
AcDbLayerTableRecord
  2
LC-004-006-----0
 70
           0
 62
           7
  6
CONTINUOUS
  0
LAYER
  5
22
100
AcDbSymbolTableRecord
100
AcDbLayerTableRecord
  2
LC-006-012-----0
 70
           0
 62
           7
  6
CONTINUOUS
  0
LAYER
  5
23
100
AcDbSymbolTableRecord
100
AcDbLayerTableRecord
  2
LC-005-002-RND-0
 70
           0
 62
           7
  6
CONTINUOUS
  0
ENDTAB
  0
TABLE
  2
STYLE
  5
3
100
AcDbSymbolTable
 70
           1
  0
STYLE
  5
17
100
AcDbSymbolTableRecord
100
AcDbTextStyleTableRecord
  2
TXT
 70
           0
 40
3.5
 41
1.0
 50
0.0
 71
           0
 42
3.5
  3
TXT
  4

  0
ENDTAB
  0
TABLE
  2
VIEW
  5
5
100
AcDbSymbolTable
 70
           0
  0
ENDTAB
  0
TABLE
  2
UCS
  5
6
100
AcDbSymbolTable
 70
           0
  0
ENDTAB
  0
TABLE
  2
APPID
  5
8
100
AcDbSymbolTable
 70
           2
  0
APPID
  5
16
100
AcDbSymbolTableRecord
100
AcDbRegAppTableRecord
  2
ACAD
 70
           0
  0
APPID
  5
24
100
AcDbSymbolTableRecord
100
AcDbRegAppTableRecord
  2
MegaCADPntStyle
 70
           0
  0
ENDTAB
  0
TABLE
  2
DIMSTYLE
  5
9
100
AcDbSymbolTable
 70
           1
  0
DIMSTYLE
105
18
100
AcDbSymbolTableRecord
100
AcDbDimStyleTableRecord
  2
STANDARD
 70
           0
  3

  4

  5

  6

  7

 40
1.0
 41
0.18
 42
0.0625
 43
0.38
 44
0.18
 45
0.0
 46
0.0
 47
0.0
 48
0.0
 71
           0
 72
           0
 73
           1
 74
           1
 75
           0
 76
           0
 77
           0
 78
           0
140
0.18
141
0.09
142
0.0
143
25.4
144
1.0
145
0.0
146
1.0
147
0.09
170
           0
171
           2
172
           0
173
           0
174
           0
175
           0
176
           0
177
           0
178
           0
270
           2
271
           4
272
           4
273
           2
274
           2
275
           0
280
           0
281
           0
282
           0
283
           1
284
           0
285
           0
286
           0
287
           0
288
           0
340
17
  0
ENDTAB
  0
TABLE
  2
BLOCK_RECORD
  5
1
100
AcDbSymbolTable
 70
           2
  0
BLOCK_RECORD
  5
A
100
AcDbSymbolTableRecord
100
AcDbBlockTableRecord
  2
*MODEL_SPACE
  0
BLOCK_RECORD
  5
B
100
AcDbSymbolTableRecord
100
AcDbBlockTableRecord
  2
*PAPER_SPACE
  0
BLOCK_RECORD
  5
25
102
{ACAD_XDICTIONARY
360
5C
102
}
100
AcDbSymbolTableRecord
100
AcDbBlockTableRecord
  2
ELIPPSE
  0
BLOCK_RECORD
  5
26
102
{ACAD_XDICTIONARY
360
5C
102
}
100
AcDbSymbolTableRecord
100
AcDbBlockTableRecord
  2
*X1
  0
ENDTAB
  0
ENDSEC
  0
SECTION
  2
BLOCKS
  0
BLOCK
  5
D
100
AcDbEntity
  8
0
100
AcDbBlockBegin
  2
*MODEL_SPACE
 70
           0
 10
0.0
 20
0.0
 30
0.0
  3
*MODEL_SPACE
  1

  0
ENDBLK
  5
E
100
AcDbEntity
  8
0
100
AcDbBlockEnd
  0
BLOCK
  5
F
100
AcDbEntity
 67
           1
  8
0
100
AcDbBlockBegin
  2
*PAPER_SPACE
 70
           0
 10
0.0
 20
0.0
 30
0.0
  3
*PAPER_SPACE
  1

  0
ENDBLK
  5
10
100
AcDbEntity
 67
           1
  8
0
100
AcDbBlockEnd
  0
BLOCK
  5
C9
100
AcDbEntity
  8
0
100
AcDbBlockBegin
  2
ELIPPSE
 70
          64
 10
0.0
 20
0.0
 30
0.0
  3
ELIPPSE
  1

  0
CIRCLE
  5
CA
100
AcDbEntity
  8
0
  6
BYBLOCK
 62
           0
100
AcDbCircle
 10
0.0
 20
0.0
 30
0.0
 40
1.0
  0
ENDBLK
  5
CB
100
AcDbEntity
  8
0
  6
BYBLOCK
 62
           0
100
AcDbBlockEnd
  0
BLOCK
  5
CC
100
AcDbEntity
  8
0
100
AcDbBlockBegin
  2
*X1
 70
          65
 10
0.0
 20
0.0
 30
0.0
  3
*X1
  1

  0
LINE
  5
CD
100
AcDbEntity
  8
0
  6
BYBLOCK
 62
           0
100
AcDbLine
 10
184.514837245431
 20
133.603149
 30
0.0
 11
185.117264
 21
134.205575754569
 31
0.0
  0
LINE
  5
CE
100
AcDbEntity
  8
0
  6
BYBLOCK
 62
           0
100
AcDbLine
 10
180.286957068919
 20
133.617909510607
 30
0.0
 11
185.117264
 21
138.448216441688
 31
0.0
  0
LINE
  5
CF
100
AcDbEntity
  8
0
  6
BYBLOCK
 62
           0
100
AcDbLine
 10
175.279555871193
 20
132.853149
 30
0.0
 11
182.279555871193
 21
139.853149
 31
0.0
  0
LINE
  5
D0
100
AcDbEntity
  8
0
  6
BYBLOCK
 62
           0
100
AcDbLine
 10
171.036915184074
 20
132.853149
 30
0.0
 11
178.036915184074
 21
139.853149
 31
0.0
  0
LINE
  5
D1
100
AcDbEntity
  8
0
  6
BYBLOCK
 62
           0
100
AcDbLine
 10
166.794274496954
 20
132.853149
 30
0.0
 11
173.794274496954
 21
139.853149
 31
0.0
  0
LINE
  5
D2
100
AcDbEntity
  8
0
  6
BYBLOCK
 62
           0
100
AcDbLine
 10
162.551633809835
 20
132.853149
 30
0.0
 11
169.551633809835
 21
139.853149
 31
0.0
  0
LINE
  5
D3
100
AcDbEntity
  8
0
  6
BYBLOCK
 62
           0
100
AcDbLine
 10
158.308993122716
 20
132.853149
 30
0.0
 11
165.308993122716
 21
139.853149
 31
0.0
  0
LINE
  5
D4
100
AcDbEntity
  8
0
  6
BYBLOCK
 62
           0
100
AcDbLine
 10
154.301298447636
 20
133.088095012039
 30
0.0
 11
161.066352435596
 21
139.853149
 31
0.0
  0
LINE
  5
D5
100
AcDbEntity
  8
0
  6
BYBLOCK
 62
           0
100
AcDbLine
 10
149.823711748477
 20
132.853149
 30
0.0
 11
156.823711748477
 21
139.853149
 31
0.0
  0
LINE
  5
D6
100
AcDbEntity
  8
0
  6
BYBLOCK
 62
           0
100
AcDbLine
 10
145.581071061358
 20
132.853149
 30
0.0
 11
152.581071061358
 21
139.853149
 31
0.0
  0
LINE
  5
D7
100
AcDbEntity
  8
0
  6
BYBLOCK
 62
           0
100
AcDbLine
 10
141.338430374239
 20
132.853149
 30
0.0
 11
148.338430374239
 21
139.853149
 31
0.0
  0
LINE
  5
D8
100
AcDbEntity
  8
0
  6
BYBLOCK
 62
           0
100
AcDbLine
 10
137.095789687119
 20
132.853149
 30
0.0
 11
144.095789687119
 21
139.853149
 31
0.0
  0
LINE
  5
D9
100
AcDbEntity
  8
0
  6
BYBLOCK
 62
           0
100
AcDbLine
 10
132.853149
 20
132.853149
 30
0.0
 11
139.853149
 21
139.853149
 31
0.0
  0
LINE
  5
DA
100
AcDbEntity
  8
0
  6
BYBLOCK
 62
           0
100
AcDbLine
 10
128.610508312881
 20
132.853149
 30
0.0
 11
135.610508312881
 21
139.853149
 31
0.0
  0
LINE
  5
DB
100
AcDbEntity
  8
0
  6
BYBLOCK
 62
           0
100
AcDbLine
 10
128.117264
 20
136.602545374239
 30
0.0
 11
131.367867625761
 21
139.853149
 31
0.0
  0
LINE
  5
DC
100
AcDbEntity
  8
0
  6
BYBLOCK
 62
           0
100
AcDbLine
 10
120.125226938642
 20
132.853149
 30
0.0
 11
124.117256
 21
136.845178061358
 31
0.0
  0
LINE
  5
DD
100
AcDbEntity
  8
0
  6
BYBLOCK
 62
           0
100
AcDbLine
 10
115.882586251523
 20
132.853149
 30
0.0
 11
122.882586251523
 21
139.853149
 31
0.0
  0
LINE
  5
DE
100
AcDbEntity
  8
0
  6
BYBLOCK
 62
           0
100
AcDbLine
 10
111.639945564404
 20
132.853149
 30
0.0
 11
118.639945564404
 21
139.853149
 31
0.0
  0
LINE
  5
DF
100
AcDbEntity
  8
0
  6
BYBLOCK
 62
           0
100
AcDbLine
 10
107.397304877284
 20
132.853149
 30
0.0
 11
114.897304877284
 21
140.353149
 31
0.0
  0
LINE
  5
E0
100
AcDbEntity
  8
0
  6
BYBLOCK
 62
           0
100
AcDbLine
 10
103.154664190165
 20
132.853149
 30
0.0
 11
110.654664190165
 21
140.353149
 31
0.0
  0
LINE
  5
E1
100
AcDbEntity
  8
0
  6
BYBLOCK
 62
           0
100
AcDbLine
 10
99.195910281562
 20
133.137035778516
 30
0.0
 11
105.912023503046
 21
139.853149
 31
0.0
  0
LINE
  5
E2
100
AcDbEntity
  8
0
  6
BYBLOCK
 62
           0
100
AcDbLine
 10
107.117256
 20
141.058381496954
 30
0.0
 11
108.512014503046
 21
142.45314
 31
0.0
  0
LINE
  5
E3
100
AcDbEntity
  8
0
  6
BYBLOCK
 62
           0
100
AcDbLine
 10
94.669382815926
 20
132.853149
 30
0.0
 11
101.669382815926
 21
139.853149
 31
0.0
  0
LINE
  5
E4
100
AcDbEntity
  8
0
  6
BYBLOCK
 62
           0
100
AcDbLine
 10
112.169382815926
 20
150.353149
 30
0.0
 11
112.669382815926
 21
150.853149
 31
0.0
  0
LINE
  5
E5
100
AcDbEntity
  8
0
  6
BYBLOCK
 62
           0
100
AcDbLine
 10
90.426742128807
 20
132.853149
 30
0.0
 11
97.426742128807
 21
139.853149
 31
0.0
  0
LINE
  5
E6
100
AcDbEntity
  8
0
  6
BYBLOCK
 62
           0
100
AcDbLine
 10
107.117256
 20
149.543662871193
 30
0.0
 11
108.426742128807
 21
150.853149
 31
0.0
  0
LINE
  5
E7
100
AcDbEntity
  8
0
  6
BYBLOCK
 62
           0
100
AcDbLine
 10
86.184101441688
 20
132.853149
 30
0.0
 11
93.184101441688
 21
139.853149
 31
0.0
  0
LINE
  5
E8
100
AcDbEntity
  8
0
  6
BYBLOCK
 62
           0
100
AcDbLine
 10
81.941460754569
 20
132.853149
 30
0.0
 11
88.941460754569
 21
139.853149
 31
0.0
  0
LINE
  5
E9
100
AcDbEntity
  8
0
  6
BYBLOCK
 62
           0
100
AcDbLine
 10
77.698820067449
 20
132.853149
 30
0.0
 11
84.698820067449
 21
139.853149
 31
0.0
  0
LINE
  5
EA
100
AcDbEntity
  8
0
  6
BYBLOCK
 62
           0
100
AcDbLine
 10
73.546015941579
 20
132.942985561249
 30
0.0
 11
80.45617938033
 21
139.853149
 31
0.0
  0
LINE
  5
EB
100
AcDbEntity
  8
0
  6
BYBLOCK
 62
           0
100
AcDbLine
 10
69.617256
 20
133.256866306789
 30
0.0
 11
76.213538693211
 21
139.853149
 31
0.0
  0
LINE
  5
EC
100
AcDbEntity
  8
0
  6
BYBLOCK
 62
           0
100
AcDbLine
 10
67.117256
 20
134.999506993909
 30
0.0
 11
71.970898006091
 21
139.853149
 31
0.0
  0
LINE
  5
ED
100
AcDbEntity
  8
0
  6
BYBLOCK
 62
           0
100
AcDbLine
 10
67.133498407603
 20
139.25839008863
 30
0.0
 11
67.71201491137
 21
139.836906592397
 31
0.0
  0
ENDBLK
  5
EE
100
AcDbEntity
  8
0
  6
BYBLOCK
 62
           0
100
AcDbBlockEnd
  0
ENDSEC
  0
SECTION
  2
ENTITIES
  0
LINE
  5
27
100
AcDbEntity
  8
LC-003-002-----0
  6
AUSGEZOGEN
 62
           1
100
AcDbLine
 10
50.484825
 20
129.853149
 30
0.0
 11
67.117256
 21
129.853149
 31
0.0
  0
LINE
  5
28
100
AcDbEntity
  8
LC-003-002-----0
  6
AUSGEZOGEN
 62
           1
100
AcDbLine
 10
185.117264
 20
129.853149
 30
0.0
 11
202.159683
 21
129.853149
 31
0.0
  0
CIRCLE
  5
29
100
AcDbEntity
  8
LC-003-002-----0
  6
AUSGEZOGEN
 62
           1
100
AcDbCircle
 10
281.706696
 20
119.853149
 30
0.0
 40
30.25
  0
CIRCLE
  5
2A
100
AcDbEntity
  8
LC-003-002-----0
  6
AUSGEZOGEN
 62
           1
100
AcDbCircle
 10
281.706696
 20
119.853149
 30
0.0
 40
20.0
  0
LINE
  5
2B
100
AcDbEntity
  8
LC-004-006-----0
  6
STRICHPUNKT
 62
           2
100
AcDbLine
 10
203.61174
 20
119.853149
 30
0.0
 11
45.760891
 21
119.853149
 31
0.0
  0
LINE
  5
2C
100
AcDbEntity
  8
LC-003-002-----0
  6
AUSGEZOGEN
 62
           1
100
AcDbLine
 10
67.867256
 20
139.853149
 30
0.0
 11
106.367256
 21
139.853149
 31
0.0
  0
LINE
  5
2D
100
AcDbEntity
  8
LC-003-002-----0
  6
AUSGEZOGEN
 62
           1
100
AcDbLine
 10
67.867256
 20
99.853149
 30
0.0
 11
106.367256
 21
99.853149
 31
0.0
  0
LINE
  5
2E
100
AcDbEntity
  8
LC-003-002-----0
  6
AUSGEZOGEN
 62
           1
100
AcDbLine
 10
114.367256
 20
150.853149
 30
0.0
 11
107.867256
 21
150.853149
 31
0.0
  0
LINE
  5
2F
100
AcDbEntity
  8
LC-003-002-----0
  6
AUSGEZOGEN
 62
           1
100
AcDbLine
 10
114.367256
 20
88.853149
 30
0.0
 11
107.867256
 21
88.853149
 31
0.0
  0
LINE
  5
30
100
AcDbEntity
  8
LC-003-002-----0
  6
AUSGEZOGEN
 62
           1
100
AcDbLine
 10
67.117256
 20
139.103149
 30
0.0
 11
67.117256
 21
129.853149
 31
0.0
  0
LINE
  5
31
100
AcDbEntity
  8
LC-003-002-----0
  6
AUSGEZOGEN
 62
           1
100
AcDbLine
 10
107.117256
 20
89.603149
 30
0.0
 11
107.117256
 21
119.853149
 31
0.0
  0
LINE
  5
32
100
AcDbEntity
  8
LC-003-002-----0
  6
AUSGEZOGEN
 62
           1
100
AcDbLine
 10
115.117256
 20
150.103149
 30
0.0
 11
115.117256
 21
139.103149
 31
0.0
  0
LINE
  5
33
100
AcDbEntity
  8
LC-003-002-----0
  6
AUSGEZOGEN
 62
           1
100
AcDbLine
 10
185.117264
 20
139.103149
 30
0.0
 11
185.117264
 21
129.853149
 31
0.0
  0
LINE
  5
34
100
AcDbEntity
  8
LC-003-002-----0
  6
AUSGEZOGEN
 62
           1
100
AcDbLine
 10
51.128719
 20
109.853149
 30
0.0
 11
67.117256
 21
109.853149
 31
0.0
  0
LINE
  5
35
100
AcDbEntity
  8
LC-005-002-RND-0
  6
AUSGEZOGEN
 62
           2
100
AcDbLine
 10
51.128719
 20
109.853149
 30
0.0
 11
51.432827
 21
115.846809
 31
0.0
  0
LINE
  5
36
100
AcDbEntity
  8
LC-005-002-RND-0
  6
AUSGEZOGEN
 62
           2
100
AcDbLine
 10
51.432827
 20
115.846809
 30
0.0
 11
49.831512
 21
124.977699
 31
0.0
  0
LINE
  5
37
100
AcDbEntity
  8
LC-005-002-RND-0
  6
AUSGEZOGEN
 62
           2
100
AcDbLine
 10
49.831512
 20
124.977699
 30
0.0
 11
50.484825
 21
129.853149
 31
0.0
  0
LINE
  5
38
100
AcDbEntity
  8
LC-005-002-RND-0
  6
AUSGEZOGEN
 62
           2
100
AcDbLine
 10
202.737625
 20
109.853149
 30
0.0
 11
201.78331
 21
114.954376
 31
0.0
  0
LINE
  5
39
100
AcDbEntity
  8
LC-005-002-RND-0
  6
AUSGEZOGEN
 62
           2
100
AcDbLine
 10
201.78331
 20
114.954376
 30
0.0
 11
202.72345
 21
125.374336
 31
0.0
  0
LINE
  5
3A
100
AcDbEntity
  8
LC-005-002-RND-0
  6
AUSGEZOGEN
 62
           2
100
AcDbLine
 10
202.72345
 20
125.374336
 30
0.0
 11
202.159683
 21
129.853149
 31
0.0
  0
LINE
  5
3B
100
AcDbEntity
  8
LC-003-002-----0
  6
AUSGEZOGEN
 62
           1
100
AcDbLine
 10
107.117256
 20
89.603149
 30
0.0
 11
107.867256
 21
88.853149
 31
0.0
  0
LINE
  5
3C
100
AcDbEntity
  8
LC-003-002-----0
  6
AUSGEZOGEN
 62
           1
100
AcDbLine
 10
107.117256
 20
150.103149
 30
0.0
 11
107.867256
 21
150.853149
 31
0.0
  0
LINE
  5
3D
100
AcDbEntity
  8
LC-003-002-----0
  6
AUSGEZOGEN
 62
           1
100
AcDbLine
 10
107.867256
 20
88.853149
 30
0.0
 11
107.867256
 21
119.853149
 31
0.0
  0
LINE
  5
3E
100
AcDbEntity
  8
LC-003-002-----0
  6
AUSGEZOGEN
 62
           1
100
AcDbLine
 10
115.117256
 20
150.103149
 30
0.0
 11
114.367256
 21
150.853149
 31
0.0
  0
LINE
  5
3F
100
AcDbEntity
  8
LC-003-002-----0
  6
AUSGEZOGEN
 62
           1
100
AcDbLine
 10
115.117256
 20
89.603149
 30
0.0
 11
114.367256
 21
88.853149
 31
0.0
  0
LINE
  5
40
100
AcDbEntity
  8
LC-003-002-----0
  6
AUSGEZOGEN
 62
           1
100
AcDbLine
 10
114.367256
 20
119.853149
 30
0.0
 11
114.367256
 21
88.853149
 31
0.0
  0
LINE
  5
41
100
AcDbEntity
  8
LC-003-002-----0
  6
AUSGEZOGEN
 62
           1
100
AcDbLine
 10
115.867256
 20
139.853149
 30
0.0
 11
115.867256
 21
139.103149
 31
0.0
  0
LINE
  5
42
100
AcDbEntity
  8
LC-003-002-----0
  6
AUSGEZOGEN
 62
           1
100
AcDbLine
 10
106.367256
 20
99.853149
 30
0.0
 11
106.367256
 21
119.853149
 31
0.0
  0
LINE
  5
43
100
AcDbEntity
  8
LC-003-002-----0
  6
AUSGEZOGEN
 62
           1
100
AcDbLine
 10
106.367256
 20
139.103149
 30
0.0
 11
107.117256
 21
139.103149
 31
0.0
  0
LINE
  5
44
100
AcDbEntity
  8
LC-003-002-----0
  6
AUSGEZOGEN
 62
           1
100
AcDbLine
 10
106.367256
 20
100.603149
 30
0.0
 11
107.117256
 21
100.603149
 31
0.0
  0
LINE
  5
45
100
AcDbEntity
  8
LC-003-002-----0
  6
AUSGEZOGEN
 62
           1
100
AcDbLine
 10
115.117256
 20
139.103149
 30
0.0
 11
115.867256
 21
139.103149
 31
0.0
  0
LINE
  5
46
100
AcDbEntity
  8
LC-003-002-----0
  6
AUSGEZOGEN
 62
           1
100
AcDbLine
 10
115.867256
 20
139.853149
 30
0.0
 11
184.367264
 21
139.853149
 31
0.0
  0
LINE
  5
47
100
AcDbEntity
  8
LC-003-002-----0
  6
AUSGEZOGEN
 62
           1
100
AcDbLine
 10
115.867256
 20
99.853149
 30
0.0
 11
184.367264
 21
99.853149
 31
0.0
  0
LINE
  5
48
100
AcDbEntity
  8
LC-003-002-----0
  6
AUSGEZOGEN
 62
           1
100
AcDbLine
 10
115.117256
 20
100.603149
 30
0.0
 11
115.867256
 21
100.603149
 31
0.0
  0
LINE
  5
49
100
AcDbEntity
  8
LC-003-002-----0
  6
AUSGEZOGEN
 62
           1
100
AcDbLine
 10
185.117264
 20
129.853149
 30
0.0
 11
67.117249
 21
129.853149
 31
0.0
  0
LINE
  5
4A
100
AcDbEntity
  8
LC-006-012-----0
  6
STRICHLINIE
 62
           2
100
AcDbLine
 10
185.117264
 20
109.853149
 30
0.0
 11
67.117249
 21
109.853149
 31
0.0
  0
LINE
  5
4B
100
AcDbEntity
  8
LC-003-002-----0
  6
AUSGEZOGEN
 62
           1
100
AcDbLine
 10
185.117264
 20
109.853149
 30
0.0
 11
202.737625
 21
109.853149
 31
0.0
  0
ARC
  5
4C
100
AcDbEntity
  8
LC-003-002-----0
  6
AUSGEZOGEN
 62
           1
100
AcDbCircle
 10
67.867256
 20
139.103149
 30
0.0
 40
0.75
100
AcDbArc
 50
90.000003
 51
180.000008999999
  0
ARC
  5
4D
100
AcDbEntity
  8
LC-003-002-----0
  6
AUSGEZOGEN
 62
           1
100
AcDbCircle
 10
67.867256
 20
100.603149
 30
0.0
 40
0.75
100
AcDbArc
 50
180.000009
 51
269.999997
  0
ARC
  5
4E
100
AcDbEntity
  8
LC-003-002-----0
  6
AUSGEZOGEN
 62
           1
100
AcDbCircle
 10
184.367264
 20
100.603149
 30
0.0
 40
0.75
100
AcDbArc
 50
269.999997
 51
0.0
  0
ARC
  5
4F
100
AcDbEntity
  8
LC-003-002-----0
  6
AUSGEZOGEN
 62
           1
100
AcDbCircle
 10
184.367264
 20
139.103149
 30
0.0
 40
0.75
100
AcDbArc
 50
0.0
 51
90.000003
  0
LINE
  5
50
100
AcDbEntity
  8
LC-004-006-----0
  6
STRICHPUNKT
 62
           2
100
AcDbLine
 10
104.536285
 20
145.353149
 30
0.0
 11
118.23719
 21
145.353149
 31
0.0
  0
LINE
  5
51
100
AcDbEntity
  8
LC-003-002-----0
  6
AUSGEZOGEN
 62
           1
100
AcDbLine
 10
109.417259
 20
150.353149
 30
0.0
 11
114.867256
 21
150.353149
 31
0.0
  0
CIRCLE
  5
52
100
AcDbEntity
  8
LC-003-002-----0
  6
AUSGEZOGEN
 62
           1
100
AcDbCircle
 10
281.706696
 20
119.853149
 30
0.0
 40
10.0
  0
CIRCLE
  5
53
100
AcDbEntity
  8
LC-004-006-----0
  6
STRICHPUNKT
 62
           2
100
AcDbCircle
 10
281.706696
 20
119.853149
 30
0.0
 40
25.5
  0
CIRCLE
  5
54
100
AcDbEntity
  8
LC-003-002-----0
  6
AUSGEZOGEN
 62
           1
100
AcDbCircle
 10
281.706696
 20
119.853149
 30
0.0
 40
31.0
  0
CIRCLE
  5
55
100
AcDbEntity
  8
LC-006-012-----0
  6
STRICHLINIE
 62
           2
100
AcDbCircle
 10
281.706696
 20
145.353149
 30
0.0
 40
5.0
  0
CIRCLE
  5
56
100
AcDbEntity
  8
LC-003-002-----0
  6
AUSGEZOGEN
 62
           1
100
AcDbCircle
 10
281.706696
 20
145.353149
 30
0.0
 40
2.9
  0
CIRCLE
  5
57
100
AcDbEntity
  8
LC-006-012-----0
  6
STRICHLINIE
 62
           2
100
AcDbCircle
 10
256.206696
 20
119.853149
 30
0.0
 40
5.0
  0
CIRCLE
  5
58
100
AcDbEntity
  8
LC-003-002-----0
  6
AUSGEZOGEN
 62
           1
100
AcDbCircle
 10
256.206696
 20
119.853149
 30
0.0
 40
2.9
  0
CIRCLE
  5
59
100
AcDbEntity
  8
LC-003-002-----0
  6
AUSGEZOGEN
 62
           1
100
AcDbCircle
 10
281.706696
 20
94.353149
 30
0.0
 40
2.9
  0
CIRCLE
  5
5A
100
AcDbEntity
  8
LC-006-012-----0
  6
STRICHLINIE
 62
           2
100
AcDbCircle
 10
281.706696
 20
94.353149
 30
0.0
 40
5.0
  0
CIRCLE
  5
5B
100
AcDbEntity
  8
LC-003-002-----0
  6
AUSGEZOGEN
 62
           1
100
AcDbCircle
 10
307.206696
 20
119.853149
 30
0.0
 40
2.9
  0
CIRCLE
  5
5C
100
AcDbEntity
  8
LC-006-012-----0
  6
STRICHLINIE
 62
           2
100
AcDbCircle
 10
307.206696
 20
119.853149
 30
0.0
 40
5.0
  0
LINE
  5
5D
100
AcDbEntity
  8
LC-004-006-----0
  6
STRICHPUNKT
 62
           2
100
AcDbLine
 10
281.706696
 20
85.172745
 30
0.0
 11
281.706696
 21
154.163803
 31
0.0
  0
LINE
  5
5E
100
AcDbEntity
  8
LC-004-006-----0
  6
STRICHPUNKT
 62
           2
100
AcDbLine
 10
247.000366
 20
119.853149
 30
0.0
 11
316.319336
 21
119.853149
 31
0.0
  0
LINE
  5
5F
100
AcDbEntity
  8
LC-003-002-----0
  6
AUSGEZOGEN
 62
           1
100
AcDbLine
 10
107.117256
 20
148.253143
 30
0.0
 11
109.417259
 21
148.253143
 31
0.0
  0
LINE
  5
60
100
AcDbEntity
  8
LC-003-002-----0
  6
AUSGEZOGEN
 62
           1
100
AcDbLine
 10
109.417259
 20
140.353149
 30
0.0
 11
109.417259
 21
150.353149
 31
0.0
  0
LINE
  5
61
100
AcDbEntity
  8
LC-003-002-----0
  6
AUSGEZOGEN
 62
           1
100
AcDbLine
 10
109.417259
 20
140.353149
 30
0.0
 11
115.117256
 21
140.353149
 31
0.0
  0
LINE
  5
62
100
AcDbEntity
  8
LC-003-002-----0
  6
AUSGEZOGEN
 62
           1
100
AcDbLine
 10
107.117256
 20
142.45314
 30
0.0
 11
109.417259
 21
142.45314
 31
0.0
  0
LINE
  5
63
100
AcDbEntity
  8
LC-004-006-----0
  6
STRICHPUNKT
 62
           2
100
AcDbLine
 10
104.536285
 20
94.353149
 30
0.0
 11
118.23719
 21
94.353149
 31
0.0
  0
LINE
  5
64
100
AcDbEntity
  8
LC-006-012-----0
  6
STRICHLINIE
 62
           2
100
AcDbLine
 10
107.117256
 20
91.453148
 30
0.0
 11
109.417259
 21
91.453148
 31
0.0
  0
LINE
  5
65
100
AcDbEntity
  8
LC-006-012-----0
  6
STRICHLINIE
 62
           2
100
AcDbLine
 10
109.417259
 20
99.353149
 30
0.0
 11
109.417259
 21
89.353149
 31
0.0
  0
LINE
  5
66
100
AcDbEntity
  8
LC-006-012-----0
  6
STRICHLINIE
 62
           2
100
AcDbLine
 10
109.417259
 20
99.353149
 30
0.0
 11
115.117256
 21
99.353149
 31
0.0
  0
LINE
  5
67
100
AcDbEntity
  8
LC-006-012-----0
  6
STRICHLINIE
 62
           2
100
AcDbLine
 10
107.117256
 20
97.253143
 30
0.0
 11
109.417259
 21
97.253143
 31
0.0
  0
LINE
  5
68
100
AcDbEntity
  8
LC-006-012-----0
  6
STRICHLINIE
 62
           2
100
AcDbLine
 10
109.417259
 20
89.353149
 30
0.0
 11
114.867256
 21
89.353149
 31
0.0
  0
LINE
  5
69
100
AcDbEntity
  8
LC-003-002-----0
  6
AUSGEZOGEN
 62
           1
100
AcDbLine
 10
146.117264
 20
132.853149
 30
0.0
 11
146.117264
 21
129.853149
 31
0.0
  0
LINE
  5
6A
100
AcDbEntity
  8
LC-003-002-----0
  6
AUSGEZOGEN
 62
           1
100
AcDbLine
 10
182.617264
 20
132.853149
 30
0.0
 11
181.290359
 21
132.853149
 31
0.0
  0
LINE
  5
6B
100
AcDbEntity
  8
LC-003-002-----0
  6
AUSGEZOGEN
 62
           1
100
AcDbLine
 10
124.117256
 20
139.853149
 30
0.0
 11
124.117256
 21
132.853149
 31
0.0
  0
LINE
  5
6C
100
AcDbEntity
  8
LC-003-002-----0
  6
AUSGEZOGEN
 62
           1
100
AcDbLine
 10
128.117264
 20
139.853149
 30
0.0
 11
128.117264
 21
132.853149
 31
0.0
  0
CIRCLE
  5
6D
100
AcDbEntity
  8
LC-003-002-----0
  6
AUSGEZOGEN
 62
           1
100
AcDbCircle
 10
165.617264
 20
131.353149
 30
0.0
 40
1.5
  0
LINE
  5
6E
100
AcDbEntity
  8
LC-003-002-----0
  6
AUSGEZOGEN
 62
           1
100
AcDbLine
 10
128.215332
 20
141.780167
 30
0.0
 11
124.01918
 21
141.780167
 31
0.0
  0
LINE
  5
6F
100
AcDbEntity
  8
LC-004-006-----0
  6
STRICHPUNKT
 62
           2
100
AcDbLine
 10
126.117256
 20
147.928452
 30
0.0
 11
126.117256
 21
131.704666
 31
0.0
  0
ARC
  5
70
100
AcDbEntity
  8
LC-003-002-----0
  6
AUSGEZOGEN
 62
           1
100
AcDbCircle
 10
126.117256
 20
138.725784
 30
0.0
 40
3.054381
100
AcDbArc
 50
66.21087
 51
113.789128
  0
ARC
  5
71
100
AcDbEntity
  8
LC-003-002-----0
  6
AUSGEZOGEN
 62
           1
100
AcDbCircle
 10
126.117256
 20
142.907532
 30
0.0
 40
3.054381
100
AcDbArc
 50
246.210872
 51
293.78913
  0
LINE
  5
72
100
AcDbEntity
  8
LC-003-002-----0
  6
AUSGEZOGEN
 62
           1
100
AcDbLine
 10
124.117256
 20
142.780167
 30
0.0
 11
124.117256
 21
141.780167
 31
0.0
  0
LINE
  5
73
100
AcDbEntity
  8
LC-003-002-----0
  6
AUSGEZOGEN
 62
           1
100
AcDbLine
 10
128.117264
 20
142.780167
 30
0.0
 11
128.117264
 21
141.780167
 31
0.0
  0
LINE
  5
74
100
AcDbEntity
  8
LC-003-002-----0
  6
AUSGEZOGEN
 62
           1
100
AcDbLine
 10
128.617264
 20
142.780167
 30
0.0
 11
123.617249
 21
142.780167
 31
0.0
  0
LINE
  5
75
100
AcDbEntity
  8
LC-003-002-----0
  6
AUSGEZOGEN
 62
           1
100
AcDbLine
 10
123.617256
 20
143.780167
 30
0.0
 11
123.617256
 21
142.780167
 31
0.0
  0
LINE
  5
76
100
AcDbEntity
  8
LC-003-002-----0
  6
AUSGEZOGEN
 62
           1
100
AcDbLine
 10
128.617264
 20
143.780167
 30
0.0
 11
128.617264
 21
142.780167
 31
0.0
  0
LINE
  5
77
100
AcDbEntity
  8
LC-003-002-----0
  6
AUSGEZOGEN
 62
           1
100
AcDbLine
 10
128.617264
 20
143.780167
 30
0.0
 11
123.617249
 21
143.780167
 31
0.0
  0
LINE
  5
78
100
AcDbEntity
  8
LC-003-002-----0
  6
AUSGEZOGEN
 62
           1
100
AcDbLine
 10
127.617256
 20
145.780167
 30
0.0
 11
124.617256
 21
145.780167
 31
0.0
  0
ARC
  5
79
100
AcDbEntity
  8
LC-003-002-----0
  6
AUSGEZOGEN
 62
           1
100
AcDbCircle
 10
126.117256
 20
143.780167
 30
0.0
 40
2.338464
100
AcDbArc
 50
58.788702
 51
121.211296
  0
LINE
  5
7A
100
AcDbEntity
  8
LC-003-002-----0
  6
AUSGEZOGEN
 62
           1
100
AcDbLine
 10
127.617256
 20
145.780167
 30
0.0
 11
128.617264
 21
143.780167
 31
0.0
  0
LINE
  5
7B
100
AcDbEntity
  8
LC-003-002-----0
  6
AUSGEZOGEN
 62
           1
100
AcDbLine
 10
124.617256
 20
145.780167
 30
0.0
 11
123.617256
 21
143.780167
 31
0.0
  0
LINE
  5
7C
100
AcDbEntity
  8
LC-003-002-----0
  6
AUSGEZOGEN
 62
           1
100
AcDbLine
 10
124.01918
 20
139.853149
 30
0.0
 11
128.215332
 21
139.853149
 31
0.0
  0
LINE
  5
7D
100
AcDbEntity
  8
LC-003-002-----0
  6
AUSGEZOGEN
 62
           1
100
AcDbLine
 10
123.153152
 20
140.112656
 30
0.0
 11
123.153152
 21
141.52066
 31
0.0
  0
ARC
  5
7E
100
AcDbEntity
  8
LC-003-002-----0
  6
AUSGEZOGEN
 62
           1
100
AcDbCircle
 10
124.01918
 20
141.427917
 30
0.0
 40
1.574777
100
AcDbArc
 50
236.637426
 51
303.362569
  0
ARC
  5
7F
100
AcDbEntity
  8
LC-003-002-----0
  6
AUSGEZOGEN
 62
           1
100
AcDbCircle
 10
128.215332
 20
141.427917
 30
0.0
 40
1.574777
100
AcDbArc
 50
236.637426
 51
303.362569
  0
LINE
  5
80
100
AcDbEntity
  8
LC-003-002-----0
  6
AUSGEZOGEN
 62
           1
100
AcDbLine
 10
129.08136
 20
140.112656
 30
0.0
 11
129.08136
 21
141.52066
 31
0.0
  0
ARC
  5
81
100
AcDbEntity
  8
LC-003-002-----0
  6
AUSGEZOGEN
 62
           1
100
AcDbCircle
 10
128.215332
 20
140.205399
 30
0.0
 40
1.574777
100
AcDbArc
 50
56.637431
 51
123.362574
  0
ARC
  5
82
100
AcDbEntity
  8
LC-003-002-----0
  6
AUSGEZOGEN
 62
           1
100
AcDbCircle
 10
124.01918
 20
140.205399
 30
0.0
 40
1.574777
100
AcDbArc
 50
56.637431
 51
123.362574
  0
LINE
  5
83
100
AcDbEntity
  8
LC-003-002-----0
  6
AUSGEZOGEN
 62
           1
100
AcDbLine
 10
124.885208
 20
141.52066
 30
0.0
 11
124.885208
 21
140.112656
 31
0.0
  0
LINE
  5
84
100
AcDbEntity
  8
LC-003-002-----0
  6
AUSGEZOGEN
 62
           1
100
AcDbLine
 10
127.349304
 20
141.52066
 30
0.0
 11
127.349304
 21
140.112656
 31
0.0
  0
LINE
  5
85
100
AcDbEntity
  8
LC-006-012-----0
  6
STRICHLINIE
 62
           2
100
AcDbLine
 10
298.695007
 20
133.874329
 30
0.0
 11
295.727875
 21
136.841461
 31
0.0
  0
LINE
  5
86
100
AcDbEntity
  8
LC-004-006-----0
  6
STRICHPUNKT
 62
           2
100
AcDbLine
 10
301.558929
 20
139.705383
 30
0.0
 11
293.939972
 21
132.086426
 31
0.0
  0
ARC
  5
87
100
AcDbEntity
  8
LC-006-012-----0
  6
STRICHLINIE
 62
           2
100
AcDbCircle
 10
295.051666
 20
133.19812
 30
0.0
 40
3.054381
100
AcDbArc
 50
21.210871
 51
68.78913
  0
ARC
  5
88
100
AcDbEntity
  8
LC-006-012-----0
  6
STRICHLINIE
 62
           2
100
AcDbCircle
 10
298.008606
 20
136.15506
 30
0.0
 40
3.054381
100
AcDbArc
 50
201.210874
 51
248.789132
  0
LINE
  5
89
100
AcDbEntity
  8
LC-006-012-----0
  6
STRICHLINIE
 62
           2
100
AcDbLine
 10
296.504333
 20
137.479218
 30
0.0
 11
295.797241
 21
136.77211
 31
0.0
  0
LINE
  5
8A
100
AcDbEntity
  8
LC-006-012-----0
  6
STRICHLINIE
 62
           2
100
AcDbLine
 10
299.332764
 20
134.650787
 30
0.0
 11
298.625641
 21
133.94368
 31
0.0
  0
LINE
  5
8B
100
AcDbEntity
  8
LC-006-012-----0
  6
STRICHLINIE
 62
           2
100
AcDbLine
 10
299.68631
 20
134.297226
 30
0.0
 11
296.150787
 21
137.832764
 31
0.0
  0
LINE
  5
8C
100
AcDbEntity
  8
LC-006-012-----0
  6
STRICHLINIE
 62
           2
100
AcDbLine
 10
296.85788
 20
138.539871
 30
0.0
 11
296.150787
 21
137.832764
 31
0.0
  0
LINE
  5
8D
100
AcDbEntity
  8
LC-006-012-----0
  6
STRICHLINIE
 62
           2
100
AcDbLine
 10
300.393433
 20
135.004333
 30
0.0
 11
299.68631
 21
134.297226
 31
0.0
  0
LINE
  5
8E
100
AcDbEntity
  8
LC-006-012-----0
  6
STRICHLINIE
 62
           2
100
AcDbLine
 10
300.393433
 20
135.004333
 30
0.0
 11
296.85788
 21
138.539871
 31
0.0
  0
LINE
  5
8F
100
AcDbEntity
  8
LC-006-012-----0
  6
STRICHLINIE
 62
           2
100
AcDbLine
 10
301.100525
 20
137.125656
 30
0.0
 11
298.979218
 21
139.246979
 31
0.0
  0
ARC
  5
90
100
AcDbEntity
  8
LC-006-012-----0
  6
STRICHLINIE
 62
           2
100
AcDbCircle
 10
298.625641
 20
136.77211
 30
0.0
 40
2.338464
100
AcDbArc
 50
13.788703
 51
76.211299
  0
LINE
  5
91
100
AcDbEntity
  8
LC-006-012-----0
  6
STRICHLINIE
 62
           2
100
AcDbLine
 10
301.100525
 20
137.125656
 30
0.0
 11
300.393433
 21
135.004333
 31
0.0
  0
LINE
  5
92
100
AcDbEntity
  8
LC-006-012-----0
  6
STRICHLINIE
 62
           2
100
AcDbLine
 10
298.979218
 20
139.246979
 30
0.0
 11
296.85788
 21
138.539871
 31
0.0
  0
LINE
  5
93
100
AcDbEntity
  8
LC-003-002-----0
  6
AUSGEZOGEN
 62
           1
100
AcDbLine
 10
294.365265
 20
135.478851
 30
0.0
 11
297.332397
 21
132.511719
 31
0.0
  0
LINE
  5
94
100
AcDbEntity
  8
LC-006-012-----0
  6
STRICHLINIE
 62
           2
100
AcDbLine
 10
293.936401
 20
136.274719
 30
0.0
 11
294.932007
 21
137.270325
 31
0.0
  0
ARC
  5
95
100
AcDbEntity
  8
LC-006-012-----0
  6
STRICHLINIE
 62
           2
100
AcDbCircle
 10
295.47879
 20
136.592377
 30
0.0
 40
1.574777
100
AcDbArc
 50
191.637435
 51
258.362570999999
  0
ARC
  5
96
100
AcDbEntity
  8
LC-006-012-----0
  6
STRICHLINIE
 62
           2
100
AcDbCircle
 10
298.445923
 20
133.625259
 30
0.0
 40
1.574777
100
AcDbArc
 50
191.637435
 51
258.362570999999
  0
LINE
  5
97
100
AcDbEntity
  8
LC-006-012-----0
  6
STRICHLINIE
 62
           2
100
AcDbLine
 10
298.128265
 20
132.082855
 30
0.0
 11
299.123871
 21
133.078461
 31
0.0
  0
ARC
  5
98
100
AcDbEntity
  8
LC-006-012-----0
  6
STRICHLINIE
 62
           2
100
AcDbCircle
 10
297.581482
 20
132.760788
 30
0.0
 40
1.574777
100
AcDbArc
 50
11.63743
 51
78.362569
  0
ARC
  5
99
100
AcDbEntity
  8
LC-006-012-----0
  6
STRICHLINIE
 62
           2
100
AcDbCircle
 10
294.614349
 20
135.727921
 30
0.0
 40
1.574777
100
AcDbArc
 50
11.63743
 51
78.362569
  0
LINE
  5
9A
100
AcDbEntity
  8
LC-006-012-----0
  6
STRICHLINIE
 62
           2
100
AcDbLine
 10
296.156738
 20
136.045578
 30
0.0
 11
295.161133
 21
135.049973
 31
0.0
  0
LINE
  5
9B
100
AcDbEntity
  8
LC-006-012-----0
  6
STRICHLINIE
 62
           2
100
AcDbLine
 10
297.899139
 20
134.303192
 30
0.0
 11
296.903534
 21
133.307587
 31
0.0
  0
LINE
  5
9C
100
AcDbEntity
  8
LC-003-002-----0
  6
AUSGEZOGEN
 62
           1
100
AcDbLine
 10
106.367256
 20
139.103149
 30
0.0
 11
106.367256
 21
139.853149
 31
0.0
  0
LINE
  5
9D
100
AcDbEntity
  8
LC-003-002-----0
  6
AUSGEZOGEN
 62
           1
100
AcDbLine
 10
107.117256
 20
139.103149
 30
0.0
 11
107.117256
 21
150.103149
 31
0.0
  0
LINE
  5
9E
100
AcDbEntity
  8
LC-003-002-----0
  6
AUSGEZOGEN
 62
           1
100
AcDbLine
 10
115.867256
 20
119.853149
 30
0.0
 11
115.867256
 21
99.853149
 31
0.0
  0
LINE
  5
9F
100
AcDbEntity
  8
LC-003-002-----0
  6
AUSGEZOGEN
 62
           1
100
AcDbLine
 10
115.117256
 20
119.853149
 30
0.0
 11
115.117256
 21
89.603149
 31
0.0
  0
CIRCLE
  5
A0
100
AcDbEntity
  8
LC-003-002-----0
  6
AUSGEZOGEN
 62
           1
100
AcDbCircle
 10
168.617264
 20
131.353149
 30
0.0
 40
1.5
  0
CIRCLE
  5
A1
100
AcDbEntity
  8
LC-003-002-----0
  6
AUSGEZOGEN
 62
           1
100
AcDbCircle
 10
171.617264
 20
131.353149
 30
0.0
 40
1.5
  0
CIRCLE
  5
A2
100
AcDbEntity
  8
LC-003-002-----0
  6
AUSGEZOGEN
 62
           1
100
AcDbCircle
 10
174.617264
 20
131.353149
 30
0.0
 40
1.5
  0
CIRCLE
  5
A3
100
AcDbEntity
  8
LC-003-002-----0
  6
AUSGEZOGEN
 62
           1
100
AcDbCircle
 10
177.617264
 20
131.753143
 30
0.0
 40
1.5
  0
LINE
  5
A4
100
AcDbEntity
  8
LC-003-002-----0
  6
AUSGEZOGEN
 62
           1
100
AcDbLine
 10
176.597458
 20
132.853149
 30
0.0
 11
154.637054
 21
132.853149
 31
0.0
  0
ARC
  5
A5
100
AcDbEntity
  8
LC-003-002-----0
  6
AUSGEZOGEN
 62
           1
100
AcDbCircle
 10
179.963715
 20
132.153152
 30
0.0
 40
1.5
100
AcDbArc
 50
227.166577
 51
152.181859999999
  0
CIRCLE
  5
A6
100
AcDbEntity
  8
LC-003-002-----0
  6
AUSGEZOGEN
 62
           1
100
AcDbCircle
 10
162.617264
 20
131.353149
 30
0.0
 40
1.5
  0
CIRCLE
  5
A7
100
AcDbEntity
  8
LC-003-002-----0
  6
AUSGEZOGEN
 62
           1
100
AcDbCircle
 10
159.617264
 20
131.353149
 30
0.0
 40
1.5
  0
CIRCLE
  5
A8
100
AcDbEntity
  8
LC-003-002-----0
  6
AUSGEZOGEN
 62
           1
100
AcDbCircle
 10
156.617264
 20
131.353149
 30
0.0
 40
1.5
  0
CIRCLE
  5
A9
100
AcDbEntity
  8
LC-003-002-----0
  6
AUSGEZOGEN
 62
           1
100
AcDbCircle
 10
153.617264
 20
131.753143
 30
0.0
 40
1.5
  0
ARC
  5
AA
100
AcDbEntity
  8
LC-003-002-----0
  6
AUSGEZOGEN
 62
           1
100
AcDbCircle
 10
151.270798
 20
132.153152
 30
0.0
 40
1.5
100
AcDbArc
 50
27.81814
 51
312.833429
  0
LINE
  5
AB
100
AcDbEntity
  8
LC-003-002-----0
  6
AUSGEZOGEN
 62
           1
100
AcDbLine
 10
183.617264
 20
134.353149
 30
0.0
 11
183.617264
 21
129.853149
 31
0.0
  0
LINE
  5
AC
100
AcDbEntity
  8
LC-003-002-----0
  6
AUSGEZOGEN
 62
           1
100
AcDbLine
 10
183.117264
 20
134.353149
 30
0.0
 11
183.117264
 21
129.853149
 31
0.0
  0
LINE
  5
AD
100
AcDbEntity
  8
LC-003-002-----0
  6
AUSGEZOGEN
 62
           1
100
AcDbLine
 10
182.617264
 20
133.603149
 30
0.0
 11
182.617264
 21
129.853149
 31
0.0
  0
LINE
  5
AE
100
AcDbEntity
  8
LC-003-002-----0
  6
AUSGEZOGEN
 62
           1
100
AcDbLine
 10
185.117264
 20
133.603149
 30
0.0
 11
183.617264
 21
133.603149
 31
0.0
  0
LINE
  5
AF
100
AcDbEntity
  8
LC-003-002-----0
  6
AUSGEZOGEN
 62
           1
100
AcDbLine
 10
183.617264
 20
134.353149
 30
0.0
 11
183.117264
 21
134.353149
 31
0.0
  0
LINE
  5
B0
100
AcDbEntity
  8
LC-003-002-----0
  6
AUSGEZOGEN
 62
           1
100
AcDbLine
 10
183.117264
 20
133.603149
 30
0.0
 11
182.617264
 21
133.603149
 31
0.0
  0
LINE
  5
B1
100
AcDbEntity
  8
LC-003-002-----0
  6
AUSGEZOGEN
 62
           1
100
AcDbLine
 10
149.944153
 20
132.853149
 30
0.0
 11
102.290359
 21
132.853149
 31
0.0
  0
LINE
  5
B2
100
AcDbEntity
  8
LC-003-002-----0
  6
AUSGEZOGEN
 62
           1
100
AcDbLine
 10
106.117256
 20
132.853149
 30
0.0
 11
106.117256
 21
129.853149
 31
0.0
  0
LINE
  5
B3
100
AcDbEntity
  8
LC-003-002-----0
  6
AUSGEZOGEN
 62
           1
100
AcDbLine
 10
69.617256
 20
132.853149
 30
0.0
 11
70.944153
 21
132.853149
 31
0.0
  0
CIRCLE
  5
B4
100
AcDbEntity
  8
LC-003-002-----0
  6
AUSGEZOGEN
 62
           1
100
AcDbCircle
 10
86.617256
 20
131.353149
 30
0.0
 40
1.5
  0
CIRCLE
  5
B5
100
AcDbEntity
  8
LC-003-002-----0
  6
AUSGEZOGEN
 62
           1
100
AcDbCircle
 10
83.617256
 20
131.353149
 30
0.0
 40
1.5
  0
CIRCLE
  5
B6
100
AcDbEntity
  8
LC-003-002-----0
  6
AUSGEZOGEN
 62
           1
100
AcDbCircle
 10
80.617256
 20
131.353149
 30
0.0
 40
1.5
  0
CIRCLE
  5
B7
100
AcDbEntity
  8
LC-003-002-----0
  6
AUSGEZOGEN
 62
           1
100
AcDbCircle
 10
77.617256
 20
131.353149
 30
0.0
 40
1.5
  0
CIRCLE
  5
B8
100
AcDbEntity
  8
LC-003-002-----0
  6
AUSGEZOGEN
 62
           1
100
AcDbCircle
 10
74.617256
 20
131.753143
 30
0.0
 40
1.5
  0
LINE
  5
B9
100
AcDbEntity
  8
LC-003-002-----0
  6
AUSGEZOGEN
 62
           1
100
AcDbLine
 10
75.637062
 20
132.853149
 30
0.0
 11
97.59745
 21
132.853149
 31
0.0
  0
ARC
  5
BA
100
AcDbEntity
  8
LC-003-002-----0
  6
AUSGEZOGEN
 62
           1
100
AcDbCircle
 10
72.270805
 20
132.153152
 30
0.0
 40
1.5
100
AcDbArc
 50
27.81814
 51
312.833429
  0
CIRCLE
  5
BB
100
AcDbEntity
  8
LC-003-002-----0
  6
AUSGEZOGEN
 62
           1
100
AcDbCircle
 10
89.617256
 20
131.353149
 30
0.0
 40
1.5
  0
CIRCLE
  5
BC
100
AcDbEntity
  8
LC-003-002-----0
  6
AUSGEZOGEN
 62
           1
100
AcDbCircle
 10
92.617256
 20
131.353149
 30
0.0
 40
1.5
  0
CIRCLE
  5
BD
100
AcDbEntity
  8
LC-003-002-----0
  6
AUSGEZOGEN
 62
           1
100
AcDbCircle
 10
95.617256
 20
131.353149
 30
0.0
 40
1.5
  0
CIRCLE
  5
BE
100
AcDbEntity
  8
LC-003-002-----0
  6
AUSGEZOGEN
 62
           1
100
AcDbCircle
 10
98.617256
 20
131.753143
 30
0.0
 40
1.5
  0
ARC
  5
BF
100
AcDbEntity
  8
LC-003-002-----0
  6
AUSGEZOGEN
 62
           1
100
AcDbCircle
 10
100.963715
 20
132.153152
 30
0.0
 40
1.5
100
AcDbArc
 50
227.166577
 51
152.18186
  0
LINE
  5
C0
100
AcDbEntity
  8
LC-003-002-----0
  6
AUSGEZOGEN
 62
           1
100
AcDbLine
 10
68.617256
 20
134.353149
 30
0.0
 11
68.617256
 21
129.853149
 31
0.0
  0
LINE
  5
C1
100
AcDbEntity
  8
LC-003-002-----0
  6
AUSGEZOGEN
 62
           1
100
AcDbLine
 10
69.117256
 20
134.353149
 30
0.0
 11
69.117256
 21
129.853149
 31
0.0
  0
LINE
  5
C2
100
AcDbEntity
  8
LC-003-002-----0
  6
AUSGEZOGEN
 62
           1
100
AcDbLine
 10
69.617256
 20
133.603149
 30
0.0
 11
69.617256
 21
129.853149
 31
0.0
  0
LINE
  5
C3
100
AcDbEntity
  8
LC-003-002-----0
  6
AUSGEZOGEN
 62
           1
100
AcDbLine
 10
67.117256
 20
133.603149
 30
0.0
 11
68.617256
 21
133.603149
 31
0.0
  0
LINE
  5
C4
100
AcDbEntity
  8
LC-003-002-----0
  6
AUSGEZOGEN
 62
           1
100
AcDbLine
 10
68.617256
 20
134.353149
 30
0.0
 11
69.117256
 21
134.353149
 31
0.0
  0
LINE
  5
C5
100
AcDbEntity
  8
LC-003-002-----0
  6
AUSGEZOGEN
 62
           1
100
AcDbLine
 10
69.117256
 20
133.603149
 30
0.0
 11
69.617256
 21
133.603149
 31
0.0
  0
LINE
  5
C6
100
AcDbEntity
  8
LC-003-002-----0
  6
AUSGEZOGEN
 62
           1
100
AcDbLine
 10
67.117256
 20
119.853149
 30
0.0
 11
67.117256
 21
100.603149
 31
0.0
  0
LINE
  5
C7
100
AcDbEntity
  8
LC-003-002-----0
  6
AUSGEZOGEN
 62
           1
100
AcDbLine
 10
185.117264
 20
119.853149
 30
0.0
 11
185.117264
 21
100.603149
 31
0.0
  0
INSERT
  5
C8
100
AcDbEntity
  8
LC-005-002-RND-0
  6
AUSGEZOGEN
 62
           2
100
AcDbBlockReference
  2
*X1
 10
0.0
 20
0.0
 30
0.0
  0
ENDSEC
  0
SECTION
  2
OBJECTS
  0
DICTIONARY
  5
19
100
AcDbDictionary
  3
ACAD_GROUP
350
1A
  3
ACAD_MLINESTYLE
350
1B
  0
DICTIONARY
  5
1A
102
{ACAD_REACTORS
330
19
102
}
100
AcDbDictionary
  0
DICTIONARY
  5
1B
102
{ACAD_REACTORS
330
19
102
}
100
AcDbDictionary
  3
STANDARD
350
1C
  0
MLINESTYLE
  5
1C
102
{ACAD_REACTORS
330
1B
102
}
100
AcDbMlineStyle
  2
STANDARD
 70
           0
  3

 62
           0
 51
90.0
 52
90.0
 71
           2
 49
0.5
 62
         256
  6
BYLAYER
 49
-0.5
 62
         256
  6
BYLAYER
  0
ENDSEC
  0
EOF
