  0
SECTION
  2
HEADER
  9
$LIMMIN
 10
87.836555
 20
50.530018
  9
$LIMMAX
 10
345.398041
 20
121.368462
  9
$EXTMIN
 10
87.836555
 20
50.530018
  9
$EXTMAX
 10
345.398041
 20
121.368462
  0
ENDSEC
  0
SECTION
  2
TABLES
  0
TABLE
  2
LTYPE
 70
     3
  0
LTYPE
  2
CONTINUOUS
 70
    64
  3
Ausgezogene Linie
 72
    65
 73
     0
 40
0.0
  0
LTYPE
  2
DASHED
 70
    64
  3
__ __ __ __ __ __ __ __ __ __ __ __ __ __ __
 72
    65
 73
     2
 40
0.75
 49
0.5
 49
-0.25
  0
LTYPE
  2
DASHDOT
 70
    64
  3
__ . __ . __ . __ . __ . __ . __ . __ . __ . __
 72
    65
 73
     4
 40
1.0
 49
0.5
 49
-0.25
 49
0.0
 49
-0.25
  0
ENDTAB
  0
TABLE
  2
LAYER
 70
     4
  0
LAYER
  2
LC-003-002-----0
 70
    64
 62
     7
  6
CONTINUOUS
  0
LAYER
  2
LC-004-006-----0
 70
    64
 62
     7
  6
CONTINUOUS
  0
LAYER
  2
LC-006-012-----0
 70
    64
 62
     7
  6
CONTINUOUS
  0
LAYER
  2
LC-005-002-RND-0
 70
    64
 62
     7
  6
CONTINUOUS
  0
ENDTAB
  0
TABLE
  2
STYLE
 70
     1
  0
STYLE
  2
TXT8
 70
    64
 40
0.0
 41
1.0
 50
0.0
 71
     0
 42
3.500000
  3
TXT8
  4

  0
ENDTAB
  0
ENDSEC
  0
SECTION
  2
BLOCKS
  0
ENDSEC
  0
SECTION
  2
ENTITIES
  0
LINE
  8
LC-004-006-----0
 62
     2
  6
DASHDOT
 10
87.836555
 20
86.113770
 11
245.555725
 21
86.113770
  0
LINE
  8
LC-003-002-----0
 62
     1
  6
CONTINUOUS
 10
170.367264
 20
117.113770
 11
163.867264
 21
117.113770
  0
LINE
  8
LC-003-002-----0
 62
     1
  6
CONTINUOUS
 10
163.867264
 20
55.113773
 11
170.367264
 21
55.113773
  0
LINE
  8
LC-003-002-----0
 62
     1
  6
CONTINUOUS
 10
111.117256
 20
105.113770
 11
111.117256
 21
67.113770
  0
LINE
  8
LC-003-002-----0
 62
     1
  6
CONTINUOUS
 10
112.117256
 20
106.113770
 11
162.367264
 21
106.113770
  0
LINE
  8
LC-003-002-----0
 62
     1
  6
CONTINUOUS
 10
112.117256
 20
66.113770
 11
162.367264
 21
66.113770
  0
LINE
  8
LC-003-002-----0
 62
     1
  6
CONTINUOUS
 10
163.117264
 20
116.363770
 11
163.117264
 21
55.863777
  0
LINE
  8
LC-003-002-----0
 62
     1
  6
CONTINUOUS
 10
171.117264
 20
55.863773
 11
171.117264
 21
116.363770
  0
LINE
  8
LC-003-002-----0
 62
     1
  6
CONTINUOUS
 10
223.117264
 20
105.113770
 11
223.117264
 21
67.113770
  0
LINE
  8
LC-003-002-----0
 62
     1
  6
CONTINUOUS
 10
162.367264
 20
105.363770
 11
163.117264
 21
105.363770
  0
LINE
  8
LC-003-002-----0
 62
     1
  6
CONTINUOUS
 10
162.367264
 20
66.863770
 11
163.117264
 21
66.863770
  0
LINE
  8
LC-003-002-----0
 62
     1
  6
CONTINUOUS
 10
162.367264
 20
106.113770
 11
162.367264
 21
66.113770
  0
LINE
  8
LC-003-002-----0
 62
     1
  6
CONTINUOUS
 10
171.867264
 20
106.113770
 11
171.867264
 21
66.113770
  0
LINE
  8
LC-003-002-----0
 62
     1
  6
CONTINUOUS
 10
171.867264
 20
106.113770
 11
222.117264
 21
106.113770
  0
LINE
  8
LC-003-002-----0
 62
     1
  6
CONTINUOUS
 10
171.867264
 20
66.113770
 11
222.117264
 21
66.113770
  0
LINE
  8
LC-003-002-----0
 62
     1
  6
CONTINUOUS
 10
171.117264
 20
66.863770
 11
171.867264
 21
66.863770
  0
LINE
  8
LC-003-002-----0
 62
     1
  6
CONTINUOUS
 10
171.117264
 20
105.363770
 11
171.867264
 21
105.363770
  0
LINE
  8
LC-003-002-----0
 62
     1
  6
CONTINUOUS
 10
163.867264
 20
55.113773
 11
163.117264
 21
55.863773
  0
LINE
  8
LC-003-002-----0
 62
     1
  6
CONTINUOUS
 10
163.867264
 20
117.113770
 11
163.117264
 21
116.363770
  0
LINE
  8
LC-003-002-----0
 62
     1
  6
CONTINUOUS
 10
163.867264
 20
55.113773
 11
163.867264
 21
117.113770
  0
LINE
  8
LC-003-002-----0
 62
     1
  6
CONTINUOUS
 10
171.117264
 20
116.363770
 11
170.367264
 21
117.113770
  0
LINE
  8
LC-003-002-----0
 62
     1
  6
CONTINUOUS
 10
170.367264
 20
55.113773
 11
171.117264
 21
55.863773
  0
LINE
  8
LC-003-002-----0
 62
     1
  6
CONTINUOUS
 10
170.367264
 20
117.113770
 11
170.367264
 21
55.113777
  0
ARC
  8
LC-003-002-----0
 62
     1
  6
CONTINUOUS
 10
112.117256
 20
105.113770
 40
1.000000
 50
90.000003
 51
180.000009
  0
ARC
  8
LC-003-002-----0
 62
     1
  6
CONTINUOUS
 10
112.117256
 20
67.113770
 40
1.000000
 50
180.000009
 51
269.999997
  0
ARC
  8
LC-003-002-----0
 62
     1
  6
CONTINUOUS
 10
222.117264
 20
67.113770
 40
1.000000
 50
269.999997
 51
0.000000
  0
ARC
  8
LC-003-002-----0
 62
     1
  6
CONTINUOUS
 10
222.117264
 20
105.113770
 40
1.000000
 50
0.000000
 51
90.000003
  0
LINE
  8
LC-003-002-----0
 62
     1
  6
CONTINUOUS
 10
91.893379
 20
98.613770
 11
111.117256
 21
98.613770
  0
LINE
  8
LC-003-002-----0
 62
     1
  6
CONTINUOUS
 10
90.639603
 20
73.613770
 11
111.117256
 21
73.613770
  0
LINE
  8
LC-005-002-RND-0
 62
     2
  6
CONTINUOUS
 10
90.639603
 20
73.613770
 11
90.934204
 21
77.114182
  0
LINE
  8
LC-005-002-RND-0
 62
     2
  6
CONTINUOUS
 10
90.934204
 20
77.114182
 11
90.097298
 21
84.842644
  0
LINE
  8
LC-005-002-RND-0
 62
     2
  6
CONTINUOUS
 10
90.097298
 20
84.842644
 11
92.064568
 21
92.984047
  0
LINE
  8
LC-005-002-RND-0
 62
     2
  6
CONTINUOUS
 10
92.064568
 20
92.984047
 11
91.893379
 21
98.613770
  0
LINE
  8
LC-005-002-RND-0
 62
     2
  6
CONTINUOUS
 10
241.922821
 20
73.613770
 11
242.599380
 21
77.114182
  0
LINE
  8
LC-005-002-RND-0
 62
     2
  6
CONTINUOUS
 10
242.599380
 20
77.114182
 11
241.186417
 21
84.634003
  0
LINE
  8
LC-005-002-RND-0
 62
     2
  6
CONTINUOUS
 10
241.186417
 20
84.634003
 11
242.034195
 21
92.462440
  0
LINE
  8
LC-005-002-RND-0
 62
     2
  6
CONTINUOUS
 10
242.034195
 20
92.462440
 11
242.034195
 21
98.613770
  0
LINE
  8
LC-006-012-----0
 62
     2
  6
DASHED
 10
111.117256
 20
98.613770
 11
223.117264
 21
98.613770
  0
LINE
  8
LC-003-002-----0
 62
     1
  6
CONTINUOUS
 10
223.117264
 20
98.613770
 11
242.034195
 21
98.613770
  0
LINE
  8
LC-006-012-----0
 62
     2
  6
DASHED
 10
111.117256
 20
73.613770
 11
223.117264
 21
73.613770
  0
LINE
  8
LC-003-002-----0
 62
     1
  6
CONTINUOUS
 10
223.117264
 20
73.613770
 11
241.922821
 21
73.613770
  0
LINE
  8
LC-004-006-----0
 62
     2
  6
DASHDOT
 10
273.350739
 20
86.113770
 11
345.398041
 21
86.113770
  0
LINE
  8
LC-004-006-----0
 62
     2
  6
DASHDOT
 10
309.113251
 20
121.368462
 11
309.113251
 21
50.530018
  0
CIRCLE
  8
LC-003-002-----0
 62
     1
  6
CONTINUOUS
 10
309.113251
 20
86.113770
 40
12.500000
  0
CIRCLE
  8
LC-003-002-----0
 62
     1
  6
CONTINUOUS
 10
309.113251
 20
86.113770
 40
20.000000
  0
CIRCLE
  8
LC-003-002-----0
 62
     1
  6
CONTINUOUS
 10
309.113251
 20
86.113770
 40
31.000000
  0
CIRCLE
  8
LC-004-006-----0
 62
     2
  6
DASHDOT
 10
309.113251
 20
86.113770
 40
25.500000
  0
CIRCLE
  8
LC-003-002-----0
 62
     1
  6
CONTINUOUS
 10
309.113251
 20
111.613770
 40
5.000000
  0
CIRCLE
  8
LC-003-002-----0
 62
     1
  6
CONTINUOUS
 10
309.113251
 20
111.613770
 40
2.900000
  0
CIRCLE
  8
LC-003-002-----0
 62
     1
  6
CONTINUOUS
 10
283.613251
 20
86.113770
 40
5.000000
  0
CIRCLE
  8
LC-003-002-----0
 62
     1
  6
CONTINUOUS
 10
283.613251
 20
86.113770
 40
2.900000
  0
CIRCLE
  8
LC-003-002-----0
 62
     1
  6
CONTINUOUS
 10
309.113251
 20
60.613773
 40
5.000000
  0
CIRCLE
  8
LC-003-002-----0
 62
     1
  6
CONTINUOUS
 10
309.113251
 20
60.613773
 40
2.900000
  0
CIRCLE
  8
LC-003-002-----0
 62
     1
  6
CONTINUOUS
 10
334.613251
 20
86.113770
 40
5.000000
  0
CIRCLE
  8
LC-003-002-----0
 62
     1
  6
CONTINUOUS
 10
334.613251
 20
86.113770
 40
2.900000
  0
LINE
  8
LC-004-006-----0
 62
     2
  6
DASHDOT
 10
173.936676
 20
111.613770
 11
160.670013
 21
111.613770
  0
LINE
  8
LC-006-012-----0
 62
     2
  6
DASHED
 10
171.117264
 20
114.513771
 11
168.817261
 21
114.513771
  0
LINE
  8
LC-006-012-----0
 62
     2
  6
DASHED
 10
168.817261
 20
116.613770
 11
163.367264
 21
116.613770
  0
LINE
  8
LC-006-012-----0
 62
     2
  6
DASHED
 10
168.817261
 20
116.613770
 11
168.817261
 21
106.613770
  0
LINE
  8
LC-006-012-----0
 62
     2
  6
DASHED
 10
168.817261
 20
106.613770
 11
163.367264
 21
106.613770
  0
LINE
  8
LC-006-012-----0
 62
     2
  6
DASHED
 10
171.117264
 20
108.713776
 11
168.817261
 21
108.713776
  0
LINE
  8
LC-004-006-----0
 62
     2
  6
DASHDOT
 10
173.936676
 20
60.613773
 11
160.670013
 21
60.613773
  0
LINE
  8
LC-006-012-----0
 62
     2
  6
DASHED
 10
171.117264
 20
57.713772
 11
168.817261
 21
57.713772
  0
LINE
  8
LC-006-012-----0
 62
     2
  6
DASHED
 10
168.817261
 20
55.613773
 11
168.817261
 21
65.613770
  0
LINE
  8
LC-006-012-----0
 62
     2
  6
DASHED
 10
168.817261
 20
65.613770
 11
163.367264
 21
65.613770
  0
LINE
  8
LC-006-012-----0
 62
     2
  6
DASHED
 10
171.117264
 20
63.513775
 11
168.817261
 21
63.513775
  0
LINE
  8
LC-006-012-----0
 62
     2
  6
DASHED
 10
168.817261
 20
55.613773
 11
163.367264
 21
55.613773
  0
LINE
  8
LC-006-012-----0
 62
     2
  6
DASHED
 10
168.817261
 20
81.113770
 11
163.367264
 21
81.113770
  0
LINE
  8
LC-006-012-----0
 62
     2
  6
DASHED
 10
171.117264
 20
83.213776
 11
168.817261
 21
83.213776
  0
LINE
  8
LC-006-012-----0
 62
     2
  6
DASHED
 10
168.817261
 20
91.113770
 11
168.817261
 21
81.113770
  0
LINE
  8
LC-006-012-----0
 62
     2
  6
DASHED
 10
171.117264
 20
89.013771
 11
168.817261
 21
89.013771
  0
LINE
  8
LC-006-012-----0
 62
     2
  6
DASHED
 10
168.817261
 20
91.113770
 11
163.367264
 21
91.113770
  0
CIRCLE
  8
LC-003-002-----0
 62
     1
  6
CONTINUOUS
 10
309.113251
 20
86.113770
 40
30.250000
  0
ENDSEC
  0
EOF
