  0
SECTION
  2
HEADER
  9
$LIMMIN
 10
382.045685
 20
473.568451
  9
$LIMMAX
 10
673.336792
 20
558.112061
  9
$EXTMIN
 10
382.045685
 20
473.568451
  9
$EXTMAX
 10
673.336792
 20
558.112061
  0
ENDSEC
  0
SECTION
  2
TABLES
  0
TABLE
  2
LTYPE
 70
     3
  0
LTYPE
  2
CONTINUOUS
 70
    64
  3
Ausgezogene Linie
 72
    65
 73
     0
 40
0.0
  0
LTYPE
  2
DASHED
 70
    64
  3
__ __ __ __ __ __ __ __ __ __ __ __ __ __ __
 72
    65
 73
     2
 40
0.75
 49
0.5
 49
-0.25
  0
LTYPE
  2
DASHDOT
 70
    64
  3
__ . __ . __ . __ . __ . __ . __ . __ . __ . __
 72
    65
 73
     4
 40
1.0
 49
0.5
 49
-0.25
 49
0.0
 49
-0.25
  0
ENDTAB
  0
TABLE
  2
LAYER
 70
     4
  0
LAYER
  2
LC-003-002-----0
 70
    64
 62
     7
  6
CONTINUOUS
  0
LAYER
  2
LC-004-006-----0
 70
    64
 62
     7
  6
CONTINUOUS
  0
LAYER
  2
LC-006-012-----0
 70
    64
 62
     7
  6
CONTINUOUS
  0
LAYER
  2
LC-005-002-RND-0
 70
    64
 62
     7
  6
CONTINUOUS
  0
ENDTAB
  0
TABLE
  2
STYLE
 70
     1
  0
STYLE
  2
TXT8
 70
    64
 40
0.0
 41
1.0
 50
0.0
 71
     0
 42
3.500000
  3
TXT8
  4

  0
ENDTAB
  0
ENDSEC
  0
SECTION
  2
BLOCKS
  0
ENDSEC
  0
SECTION
  2
ENTITIES
  0
LINE
  8
LC-004-006-----0
 62
     2
  6
DASHDOT
 10
382.045685
 20
516.333313
 11
548.186340
 21
516.333313
  0
LINE
  8
LC-003-002-----0
 62
     1
  6
CONTINUOUS
 10
402.917419
 20
539.833313
 11
457.417419
 21
539.833313
  0
LINE
  8
LC-003-002-----0
 62
     1
  6
CONTINUOUS
 10
402.917419
 20
492.833313
 11
457.417419
 21
492.833313
  0
LINE
  8
LC-003-002-----0
 62
     1
  6
CONTINUOUS
 10
467.667419
 20
554.333313
 11
459.167419
 21
554.333313
  0
LINE
  8
LC-003-002-----0
 62
     1
  6
CONTINUOUS
 10
467.667419
 20
478.333313
 11
459.167419
 21
478.333313
  0
LINE
  8
LC-003-002-----0
 62
     1
  6
CONTINUOUS
 10
401.917419
 20
538.833313
 11
401.917419
 21
493.833313
  0
LINE
  8
LC-003-002-----0
 62
     1
  6
CONTINUOUS
 10
458.417419
 20
553.583313
 11
458.417419
 21
479.083313
  0
LINE
  8
LC-003-002-----0
 62
     1
  6
CONTINUOUS
 10
524.917419
 20
538.833313
 11
524.917419
 21
493.833313
  0
LINE
  8
LC-003-002-----0
 62
     1
  6
CONTINUOUS
 10
468.417419
 20
553.583313
 11
468.417419
 21
479.083313
  0
LINE
  8
LC-003-002-----0
 62
     1
  6
CONTINUOUS
 10
469.417419
 20
539.833313
 11
523.917419
 21
539.833313
  0
LINE
  8
LC-003-002-----0
 62
     1
  6
CONTINUOUS
 10
469.417419
 20
492.833313
 11
523.917419
 21
492.833313
  0
LINE
  8
LC-003-002-----0
 62
     1
  6
CONTINUOUS
 10
457.417419
 20
539.833313
 11
457.417419
 21
492.833313
  0
LINE
  8
LC-003-002-----0
 62
     1
  6
CONTINUOUS
 10
469.417419
 20
539.833313
 11
469.417419
 21
492.833313
  0
LINE
  8
LC-003-002-----0
 62
     1
  6
CONTINUOUS
 10
457.417419
 20
538.833313
 11
458.417419
 21
538.833313
  0
LINE
  8
LC-003-002-----0
 62
     1
  6
CONTINUOUS
 10
457.417419
 20
493.833313
 11
458.417419
 21
493.833313
  0
LINE
  8
LC-003-002-----0
 62
     1
  6
CONTINUOUS
 10
468.417419
 20
538.833313
 11
469.417419
 21
538.833313
  0
LINE
  8
LC-003-002-----0
 62
     1
  6
CONTINUOUS
 10
468.417419
 20
493.833313
 11
469.417419
 21
493.833313
  0
LINE
  8
LC-003-002-----0
 62
     1
  6
CONTINUOUS
 10
458.417419
 20
479.083313
 11
459.167419
 21
478.333313
  0
LINE
  8
LC-003-002-----0
 62
     1
  6
CONTINUOUS
 10
459.167419
 20
554.333313
 11
458.417419
 21
553.583313
  0
LINE
  8
LC-003-002-----0
 62
     1
  6
CONTINUOUS
 10
459.167419
 20
478.333313
 11
459.167419
 21
554.333313
  0
LINE
  8
LC-003-002-----0
 62
     1
  6
CONTINUOUS
 10
468.417419
 20
553.583313
 11
467.667419
 21
554.333313
  0
LINE
  8
LC-003-002-----0
 62
     1
  6
CONTINUOUS
 10
468.417419
 20
479.083313
 11
467.667419
 21
478.333313
  0
LINE
  8
LC-003-002-----0
 62
     1
  6
CONTINUOUS
 10
467.667419
 20
554.333313
 11
467.667419
 21
478.333313
  0
ARC
  8
LC-003-002-----0
 62
     1
  6
CONTINUOUS
 10
402.917419
 20
538.833313
 40
1.000000
 50
90.000003
 51
180.000009
  0
ARC
  8
LC-003-002-----0
 62
     1
  6
CONTINUOUS
 10
402.917419
 20
493.833313
 40
1.000000
 50
180.000009
 51
269.999997
  0
ARC
  8
LC-003-002-----0
 62
     1
  6
CONTINUOUS
 10
523.917419
 20
493.833313
 40
1.000000
 50
269.999997
 51
0.000000
  0
ARC
  8
LC-003-002-----0
 62
     1
  6
CONTINUOUS
 10
523.917419
 20
538.833313
 40
1.000000
 50
0.000000
 51
90.000003
  0
LINE
  8
LC-003-002-----0
 62
     1
  6
CONTINUOUS
 10
384.351105
 20
531.333313
 11
401.917419
 21
531.333313
  0
LINE
  8
LC-003-002-----0
 62
     1
  6
CONTINUOUS
 10
383.783295
 20
501.333313
 11
401.917419
 21
501.333313
  0
LINE
  8
LC-005-002-RND-0
 62
     2
  6
CONTINUOUS
 10
383.783295
 20
501.333313
 11
383.269012
 21
507.701233
  0
LINE
  8
LC-005-002-RND-0
 62
     2
  6
CONTINUOUS
 10
383.269012
 20
507.701233
 11
385.352692
 21
517.125732
  0
LINE
  8
LC-005-002-RND-0
 62
     2
  6
CONTINUOUS
 10
385.352692
 20
517.125732
 11
383.793304
 21
527.974854
  0
LINE
  8
LC-005-002-RND-0
 62
     2
  6
CONTINUOUS
 10
383.793304
 20
527.974854
 11
384.351105
 21
531.333313
  0
LINE
  8
LC-005-002-RND-0
 62
     2
  6
CONTINUOUS
 10
544.049866
 20
501.333313
 11
543.306458
 21
506.276520
  0
LINE
  8
LC-005-002-RND-0
 62
     2
  6
CONTINUOUS
 10
543.306458
 20
506.276520
 11
544.529785
 21
514.932190
  0
LINE
  8
LC-005-002-RND-0
 62
     2
  6
CONTINUOUS
 10
544.529785
 20
514.932190
 11
542.432678
 21
524.749146
  0
LINE
  8
LC-005-002-RND-0
 62
     2
  6
CONTINUOUS
 10
542.432678
 20
524.749146
 11
543.061523
 21
531.333313
  0
LINE
  8
LC-006-012-----0
 62
     2
  6
DASHED
 10
401.917419
 20
531.333313
 11
524.917419
 21
531.333313
  0
LINE
  8
LC-003-002-----0
 62
     1
  6
CONTINUOUS
 10
524.917419
 20
531.333313
 11
543.061523
 21
531.333313
  0
LINE
  8
LC-006-012-----0
 62
     2
  6
DASHED
 10
401.917419
 20
501.333313
 11
524.917419
 21
501.333313
  0
LINE
  8
LC-003-002-----0
 62
     1
  6
CONTINUOUS
 10
524.917419
 20
501.333313
 11
544.049866
 21
501.333313
  0
LINE
  8
LC-004-006-----0
 62
     2
  6
DASHDOT
 10
586.269104
 20
516.333313
 11
673.336792
 21
516.333313
  0
LINE
  8
LC-004-006-----0
 62
     2
  6
DASHDOT
 10
630.429626
 20
558.112061
 11
630.429626
 21
473.568451
  0
CIRCLE
  8
LC-003-002-----0
 62
     1
  6
CONTINUOUS
 10
630.429626
 20
516.333313
 40
15.000000
  0
CIRCLE
  8
LC-003-002-----0
 62
     1
  6
CONTINUOUS
 10
630.429626
 20
516.333313
 40
23.500000
  0
CIRCLE
  8
LC-003-002-----0
 62
     1
  6
CONTINUOUS
 10
630.429626
 20
516.333313
 40
38.000000
  0
CIRCLE
  8
LC-004-006-----0
 62
     2
  6
DASHDOT
 10
630.429626
 20
516.333313
 40
31.000000
  0
CIRCLE
  8
LC-003-002-----0
 62
     1
  6
CONTINUOUS
 10
630.429626
 20
547.333313
 40
5.500000
  0
CIRCLE
  8
LC-003-002-----0
 62
     1
  6
CONTINUOUS
 10
630.429626
 20
547.333313
 40
3.500000
  0
CIRCLE
  8
LC-003-002-----0
 62
     1
  6
CONTINUOUS
 10
599.429626
 20
516.333313
 40
5.500000
  0
CIRCLE
  8
LC-003-002-----0
 62
     1
  6
CONTINUOUS
 10
599.429626
 20
516.333313
 40
3.500000
  0
CIRCLE
  8
LC-003-002-----0
 62
     1
  6
CONTINUOUS
 10
630.429626
 20
485.333313
 40
5.500000
  0
CIRCLE
  8
LC-003-002-----0
 62
     1
  6
CONTINUOUS
 10
630.429626
 20
485.333313
 40
3.500000
  0
CIRCLE
  8
LC-003-002-----0
 62
     1
  6
CONTINUOUS
 10
661.429626
 20
516.333313
 40
3.500000
  0
CIRCLE
  8
LC-003-002-----0
 62
     1
  6
CONTINUOUS
 10
661.429626
 20
516.333313
 40
5.500000
  0
LINE
  8
LC-004-006-----0
 62
     2
  6
DASHDOT
 10
471.447968
 20
547.333313
 11
455.561188
 21
547.333313
  0
LINE
  8
LC-006-012-----0
 62
     2
  6
DASHED
 10
468.417419
 20
550.833313
 11
465.217407
 21
550.833313
  0
LINE
  8
LC-006-012-----0
 62
     2
  6
DASHED
 10
465.217407
 20
552.833313
 11
458.417419
 21
552.833313
  0
LINE
  8
LC-006-012-----0
 62
     2
  6
DASHED
 10
465.217407
 20
552.833313
 11
465.217407
 21
541.833313
  0
LINE
  8
LC-006-012-----0
 62
     2
  6
DASHED
 10
465.217407
 20
541.833313
 11
458.417419
 21
541.833313
  0
LINE
  8
LC-006-012-----0
 62
     2
  6
DASHED
 10
468.417419
 20
543.833313
 11
465.217407
 21
543.833313
  0
LINE
  8
LC-006-012-----0
 62
     2
  6
DASHED
 10
468.417419
 20
481.833313
 11
465.217407
 21
481.833313
  0
LINE
  8
LC-006-012-----0
 62
     2
  6
DASHED
 10
465.217407
 20
479.833313
 11
458.417419
 21
479.833313
  0
LINE
  8
LC-006-012-----0
 62
     2
  6
DASHED
 10
465.217407
 20
479.833313
 11
465.217407
 21
490.833313
  0
LINE
  8
LC-006-012-----0
 62
     2
  6
DASHED
 10
465.217407
 20
490.833313
 11
458.417419
 21
490.833313
  0
LINE
  8
LC-006-012-----0
 62
     2
  6
DASHED
 10
468.417419
 20
488.833313
 11
465.217407
 21
488.833313
  0
LINE
  8
LC-004-006-----0
 62
     2
  6
DASHDOT
 10
471.447968
 20
485.333313
 11
455.561188
 21
485.333313
  0
LINE
  8
LC-006-012-----0
 62
     2
  6
DASHED
 10
465.217407
 20
521.833313
 11
458.417419
 21
521.833313
  0
LINE
  8
LC-006-012-----0
 62
     2
  6
DASHED
 10
465.217407
 20
510.833313
 11
465.217407
 21
521.833313
  0
LINE
  8
LC-006-012-----0
 62
     2
  6
DASHED
 10
468.417419
 20
519.833313
 11
465.217407
 21
519.833313
  0
LINE
  8
LC-006-012-----0
 62
     2
  6
DASHED
 10
468.417419
 20
512.833313
 11
465.217407
 21
512.833313
  0
LINE
  8
LC-006-012-----0
 62
     2
  6
DASHED
 10
465.217407
 20
510.833313
 11
458.417419
 21
510.833313
  0
CIRCLE
  8
LC-003-002-----0
 62
     1
  6
CONTINUOUS
 10
630.429626
 20
516.333313
 40
37.250000
  0
ENDSEC
  0
EOF
