  0
SECTION
  2
HEADER
  9
$LIMMIN
 10
141.734421
 20
-81.356514
  9
$LIMMAX
 10
375.394653
 20
161.970917
  9
$EXTMIN
 10
141.734421
 20
-81.356514
  9
$EXTMAX
 10
375.394653
 20
161.970917
  0
ENDSEC
  0
SECTION
  2
TABLES
  0
TABLE
  2
LTYPE
 70
     3
  0
LTYPE
  2
CONTINUOUS
 70
    64
  3
Ausgezogene Linie
 72
    65
 73
     0
 40
0.0
  0
LTYPE
  2
DASHED
 70
    64
  3
__ __ __ __ __ __ __ __ __ __ __ __ __ __ __
 72
    65
 73
     2
 40
0.75
 49
0.5
 49
-0.25
  0
LTYPE
  2
DASHDOT
 70
    64
  3
__ . __ . __ . __ . __ . __ . __ . __ . __ . __
 72
    65
 73
     4
 40
1.0
 49
0.5
 49
-0.25
 49
0.0
 49
-0.25
  0
ENDTAB
  0
TABLE
  2
LAYER
 70
     5
  0
LAYER
  2
LC-INFO-1-1-MM-A0-0
 70
    64
 62
     7
  6
CONTINUOUS
  0
LAYER
  2
LC-003-002-----0
 70
    64
 62
     7
  6
CONTINUOUS
  0
LAYER
  2
LC-008-003-----0
 70
    64
 62
     7
  6
CONTINUOUS
  0
LAYER
  2
LC-004-006-----0
 70
    64
 62
     7
  6
CONTINUOUS
  0
LAYER
  2
LC-006-012-----0
 70
    64
 62
     7
  6
CONTINUOUS
  0
ENDTAB
  0
TABLE
  2
STYLE
 70
     1
  0
STYLE
  2
TXT8
 70
    64
 40
0.0
 41
1.0
 50
0.0
 71
     0
 42
3.500000
  3
TXT8
  4

  0
ENDTAB
  0
ENDSEC
  0
SECTION
  2
BLOCKS
  0
ENDSEC
  0
SECTION
  2
ENTITIES
  0
LINE
  8
LC-006-012-----0
 62
     2
  6
CONTINUOUS
 10
265.111542
 20
140.673706
 11
264.781921
 21
139.755951
  0
LINE
  8
LC-006-012-----0
 62
     2
  6
CONTINUOUS
 10
264.781921
 20
139.755951
 11
264.097076
 21
137.471146
  0
LINE
  8
LC-006-012-----0
 62
     2
  6
CONTINUOUS
 10
264.097076
 20
137.471146
 11
263.513123
 21
134.521988
  0
LINE
  8
LC-006-012-----0
 62
     2
  6
CONTINUOUS
 10
263.513123
 20
134.521988
 11
263.486206
 21
131.611160
  0
LINE
  8
LC-006-012-----0
 62
     2
  6
CONTINUOUS
 10
263.486206
 20
131.611160
 11
264.265717
 21
129.399094
  0
LINE
  8
LC-006-012-----0
 62
     2
  6
CONTINUOUS
 10
264.265717
 20
129.399094
 11
265.635590
 21
127.634956
  0
LINE
  8
LC-006-012-----0
 62
     2
  6
CONTINUOUS
 10
265.635590
 20
127.634964
 11
267.284912
 21
126.107491
  0
LINE
  8
LC-006-012-----0
 62
     2
  6
CONTINUOUS
 10
267.284912
 20
126.107491
 11
268.902740
 21
124.605392
  0
LINE
  8
LC-006-012-----0
 62
     2
  6
CONTINUOUS
 10
268.902740
 20
124.605392
 11
270.178162
 21
122.917374
  0
LINE
  8
LC-006-012-----0
 62
     2
  6
CONTINUOUS
 10
270.178162
 20
122.917374
 11
270.800262
 21
120.832146
  0
LINE
  8
LC-006-012-----0
 62
     2
  6
CONTINUOUS
 10
270.800262
 20
120.832146
 11
270.582794
 21
118.295212
  0
LINE
  8
LC-006-012-----0
 62
     2
  6
CONTINUOUS
 10
270.582794
 20
118.295212
 11
269.791687
 21
115.590866
  0
LINE
  8
LC-006-012-----0
 62
     2
  6
CONTINUOUS
 10
269.791687
 20
115.590866
 11
268.784271
 21
113.139137
  0
LINE
  8
LC-006-012-----0
 62
     2
  6
CONTINUOUS
 10
268.784271
 20
113.139137
 11
267.917786
 21
111.360069
  0
LINE
  8
LC-006-012-----0
 62
     2
  6
CONTINUOUS
 10
267.917786
 20
111.360069
 11
267.549561
 21
110.673706
  0
LINE
  8
LC-006-012-----0
 62
     2
  6
CONTINUOUS
 10
374.133728
 20
140.673706
 11
373.724060
 21
140.098007
  0
LINE
  8
LC-006-012-----0
 62
     2
  6
CONTINUOUS
 10
373.724060
 20
140.098007
 11
372.709656
 21
138.584106
  0
LINE
  8
LC-006-012-----0
 62
     2
  6
CONTINUOUS
 10
372.709656
 20
138.584106
 11
371.412506
 21
136.451797
  0
LINE
  8
LC-006-012-----0
 62
     2
  6
CONTINUOUS
 10
371.412506
 20
136.451797
 11
370.154541
 21
134.020889
  0
LINE
  8
LC-006-012-----0
 62
     2
  6
CONTINUOUS
 10
370.154541
 20
134.020889
 11
369.257690
 21
131.611160
  0
LINE
  8
LC-006-012-----0
 62
     2
  6
CONTINUOUS
 10
369.257690
 20
131.611160
 11
368.964081
 21
129.328735
  0
LINE
  8
LC-006-012-----0
 62
     2
  6
CONTINUOUS
 10
368.964081
 20
129.328735
 11
369.255341
 21
127.306801
  0
LINE
  8
LC-006-012-----0
 62
     2
  6
CONTINUOUS
 10
369.255341
 20
127.306801
 11
369.932129
 21
125.414375
  0
LINE
  8
LC-006-012-----0
 62
     2
  6
CONTINUOUS
 10
369.932129
 20
125.414375
 11
370.795135
 21
123.520508
  0
LINE
  8
LC-006-012-----0
 62
     2
  6
CONTINUOUS
 10
370.795135
 20
123.520508
 11
371.645050
 21
121.494217
  0
LINE
  8
LC-006-012-----0
 62
     2
  6
CONTINUOUS
 10
371.645050
 20
121.494217
 11
372.282593
 21
119.204552
  0
LINE
  8
LC-006-012-----0
 62
     2
  6
CONTINUOUS
 10
372.282593
 20
119.204552
 11
372.508392
 21
116.520538
  0
LINE
  8
LC-006-012-----0
 62
     2
  6
CONTINUOUS
 10
372.508392
 20
116.520538
 11
372.086487
 21
112.618469
  0
LINE
  8
LC-006-012-----0
 62
     2
  6
CONTINUOUS
 10
372.086487
 20
112.618469
 11
371.695709
 21
110.673706
  0
LINE
  8
LC-006-012-----0
 62
     2
  6
CONTINUOUS
 10
170.753006
 20
-75.860580
 11
171.670761
 21
-76.190224
  0
LINE
  8
LC-006-012-----0
 62
     2
  6
CONTINUOUS
 10
171.670761
 20
-76.190224
 11
173.955566
 21
-76.875061
  0
LINE
  8
LC-006-012-----0
 62
     2
  6
CONTINUOUS
 10
173.955566
 20
-76.875061
 11
176.904724
 21
-77.459000
  0
LINE
  8
LC-006-012-----0
 62
     2
  6
CONTINUOUS
 10
176.904724
 20
-77.459000
 11
179.815552
 21
-77.485931
  0
LINE
  8
LC-006-012-----0
 62
     2
  6
CONTINUOUS
 10
179.815552
 20
-77.485931
 11
182.027618
 21
-76.706421
  0
LINE
  8
LC-006-012-----0
 62
     2
  6
CONTINUOUS
 10
182.027618
 20
-76.706421
 11
183.791748
 21
-75.336540
  0
LINE
  8
LC-006-012-----0
 62
     2
  6
CONTINUOUS
 10
183.791748
 20
-75.336540
 11
185.319214
 21
-73.687225
  0
LINE
  8
LC-006-012-----0
 62
     2
  6
CONTINUOUS
 10
185.319214
 20
-73.687225
 11
186.821304
 21
-72.069389
  0
LINE
  8
LC-006-012-----0
 62
     2
  6
CONTINUOUS
 10
186.821304
 20
-72.069389
 11
188.509323
 21
-70.793961
  0
LINE
  8
LC-006-012-----0
 62
     2
  6
CONTINUOUS
 10
188.509323
 20
-70.793961
 11
190.594559
 21
-70.171867
  0
LINE
  8
LC-006-012-----0
 62
     2
  6
CONTINUOUS
 10
190.594559
 20
-70.171867
 11
193.131485
 21
-70.389343
  0
LINE
  8
LC-006-012-----0
 62
     2
  6
CONTINUOUS
 10
193.131485
 20
-70.389343
 11
195.835846
 21
-71.180435
  0
LINE
  8
LC-006-012-----0
 62
     2
  6
CONTINUOUS
 10
195.835846
 20
-71.180435
 11
198.287567
 21
-72.187866
  0
LINE
  8
LC-006-012-----0
 62
     2
  6
CONTINUOUS
 10
198.287567
 20
-72.187866
 11
200.066635
 21
-73.054344
  0
LINE
  8
LC-006-012-----0
 62
     2
  6
CONTINUOUS
 10
200.066635
 20
-73.054344
 11
200.753006
 21
-73.422562
  0
LINE
  8
LC-006-012-----0
 62
     2
  6
CONTINUOUS
 10
170.753006
 20
38.161598
 11
171.328705
 21
37.751926
  0
LINE
  8
LC-006-012-----0
 62
     2
  6
CONTINUOUS
 10
171.328705
 20
37.751926
 11
172.842606
 21
36.737534
  0
LINE
  8
LC-006-012-----0
 62
     2
  6
CONTINUOUS
 10
172.842606
 20
36.737534
 11
174.974899
 21
35.440380
  0
LINE
  8
LC-006-012-----0
 62
     2
  6
CONTINUOUS
 10
174.974899
 20
35.440380
 11
177.405823
 21
34.182404
  0
LINE
  8
LC-006-012-----0
 62
     2
  6
CONTINUOUS
 10
177.405823
 20
34.182404
 11
179.815552
 21
33.285561
  0
LINE
  8
LC-006-012-----0
 62
     2
  6
CONTINUOUS
 10
179.815552
 20
33.285561
 11
182.097961
 21
32.991955
  0
LINE
  8
LC-006-012-----0
 62
     2
  6
CONTINUOUS
 10
182.097961
 20
32.991955
 11
184.119904
 21
33.283203
  0
LINE
  8
LC-006-012-----0
 62
     2
  6
CONTINUOUS
 10
184.119904
 20
33.283203
 11
186.012329
 21
33.959991
  0
LINE
  8
LC-006-012-----0
 62
     2
  6
CONTINUOUS
 10
186.012329
 20
33.959991
 11
187.906204
 21
34.823002
  0
LINE
  8
LC-006-012-----0
 62
     2
  6
CONTINUOUS
 10
187.906204
 20
34.823002
 11
189.932480
 21
35.672928
  0
LINE
  8
LC-006-012-----0
 62
     2
  6
CONTINUOUS
 10
189.932480
 20
35.672928
 11
192.222153
 21
36.310448
  0
LINE
  8
LC-006-012-----0
 62
     2
  6
CONTINUOUS
 10
192.222153
 20
36.310448
 11
194.906158
 21
36.536251
  0
LINE
  8
LC-006-012-----0
 62
     2
  6
CONTINUOUS
 10
194.906158
 20
36.536251
 11
198.808243
 21
36.114361
  0
LINE
  8
LC-006-012-----0
 62
     2
  6
CONTINUOUS
 10
198.808243
 20
36.114361
 11
200.753006
 21
35.723579
  0
LINE
  8
LC-003-002-----0
 62
     1
  6
CONTINUOUS
 10
142.753006
 20
90.673706
 11
142.753006
 21
150.673706
  0
LINE
  8
LC-003-002-----0
 62
     1
  6
CONTINUOUS
 10
152.753006
 20
160.673706
 11
218.753006
 21
160.673706
  0
LINE
  8
LC-003-002-----0
 62
     1
  6
CONTINUOUS
 10
228.753006
 20
150.673706
 11
228.753006
 21
90.673706
  0
LINE
  8
LC-003-002-----0
 62
     1
  6
CONTINUOUS
 10
142.753006
 20
90.673706
 11
228.753006
 21
90.673706
  0
LINE
  8
LC-003-002-----0
 62
     1
  6
CONTINUOUS
 10
218.753006
 20
160.673706
 11
228.753006
 21
150.673706
  0
LINE
  8
LC-003-002-----0
 62
     1
  6
CONTINUOUS
 10
142.753006
 20
150.673706
 11
152.753006
 21
160.673706
  0
LINE
  8
LC-008-003-----0
 62
     2
  6
DASHDOT
 10
159.901947
 20
125.673706
 11
211.471756
 21
125.673706
  0
LINE
  8
LC-008-003-----0
 62
     2
  6
DASHDOT
 10
185.753006
 20
99.786392
 11
185.753006
 21
151.312561
  0
CIRCLE
  8
LC-003-002-----0
 62
     1
  6
CONTINUOUS
 10
185.753006
 20
125.673706
 40
15.000000
  0
CIRCLE
  8
LC-003-002-----0
 62
     1
  6
CONTINUOUS
 10
185.753006
 20
125.673706
 40
23.500000
  0
LINE
  8
LC-003-002-----0
 62
     1
  6
CONTINUOUS
 10
142.753006
 20
21.901201
 11
142.753006
 21
-57.098801
  0
LINE
  8
LC-003-002-----0
 62
     1
  6
CONTINUOUS
 10
228.753006
 20
21.901201
 11
228.753006
 21
-57.098801
  0
LINE
  8
LC-003-002-----0
 62
     1
  6
CONTINUOUS
 10
142.753006
 20
21.901201
 11
228.753006
 21
21.901201
  0
LINE
  8
LC-003-002-----0
 62
     1
  6
CONTINUOUS
 10
142.753006
 20
-57.098801
 11
228.753006
 21
-57.098801
  0
LINE
  8
LC-003-002-----0
 62
     1
  6
CONTINUOUS
 10
278.873322
 20
90.673706
 11
357.873322
 21
90.673706
  0
LINE
  8
LC-003-002-----0
 62
     1
  6
CONTINUOUS
 10
278.873322
 20
160.673706
 11
357.873322
 21
160.673706
  0
LINE
  8
LC-003-002-----0
 62
     1
  6
CONTINUOUS
 10
278.873322
 20
150.673706
 11
357.873322
 21
150.673706
  0
LINE
  8
LC-008-003-----0
 62
     2
  6
DASHDOT
 10
260.318176
 20
125.673706
 11
375.394653
 21
125.673706
  0
LINE
  8
LC-003-002-----0
 62
     1
  6
CONTINUOUS
 10
278.873322
 20
160.673706
 11
278.873322
 21
90.673706
  0
LINE
  8
LC-003-002-----0
 62
     1
  6
CONTINUOUS
 10
357.873322
 20
160.673706
 11
357.873322
 21
90.673706
  0
LINE
  8
LC-008-003-----0
 62
     2
  6
DASHDOT
 10
185.753006
 20
40.599117
 11
185.753006
 21
-81.356514
  0
LINE
  8
LC-003-002-----0
 62
     1
  6
CONTINUOUS
 10
200.753006
 20
35.723579
 11
200.753006
 21
21.901201
  0
LINE
  8
LC-003-002-----0
 62
     1
  6
CONTINUOUS
 10
170.753006
 20
38.161598
 11
170.753006
 21
21.901201
  0
LINE
  8
LC-004-006-----0
 62
     2
  6
DASHED
 10
170.753006
 20
21.901201
 11
170.753006
 21
-57.098801
  0
LINE
  8
LC-003-002-----0
 62
     1
  6
CONTINUOUS
 10
170.753006
 20
-57.098801
 11
170.753006
 21
-75.860580
  0
LINE
  8
LC-004-006-----0
 62
     2
  6
DASHED
 10
200.753006
 20
21.901201
 11
200.753006
 21
-57.098801
  0
LINE
  8
LC-003-002-----0
 62
     1
  6
CONTINUOUS
 10
200.753006
 20
-57.098801
 11
200.753006
 21
-73.422562
  0
LINE
  8
LC-008-003-----0
 62
     2
  6
DASHDOT
 10
340.873322
 20
88.111603
 11
340.873322
 21
161.970917
  0
LINE
  8
LC-003-002-----0
 62
     1
  6
CONTINUOUS
 10
371.695709
 20
110.673706
 11
357.873322
 21
110.673706
  0
LINE
  8
LC-003-002-----0
 62
     1
  6
CONTINUOUS
 10
374.133728
 20
140.673706
 11
357.873322
 21
140.673706
  0
LINE
  8
LC-004-006-----0
 62
     2
  6
DASHED
 10
357.873322
 20
140.673706
 11
278.873322
 21
140.673706
  0
LINE
  8
LC-003-002-----0
 62
     1
  6
CONTINUOUS
 10
278.873322
 20
140.673706
 11
265.111542
 21
140.673706
  0
LINE
  8
LC-004-006-----0
 62
     2
  6
DASHED
 10
357.873322
 20
110.673706
 11
278.873322
 21
110.673706
  0
LINE
  8
LC-003-002-----0
 62
     1
  6
CONTINUOUS
 10
278.873322
 20
110.673706
 11
267.549561
 21
110.673706
  0
LINE
  8
LC-004-006-----0
 62
     2
  6
DASHED
 10
162.253006
 20
21.901201
 11
162.253006
 21
-57.098801
  0
LINE
  8
LC-004-006-----0
 62
     2
  6
DASHED
 10
215.552994
 20
90.673706
 11
215.552994
 21
152.673706
  0
LINE
  8
LC-008-003-----0
 62
     2
  6
DASHDOT
 10
219.753006
 20
88.791283
 11
219.753006
 21
161.970917
  0
LINE
  8
LC-004-006-----0
 62
     2
  6
DASHED
 10
223.953003
 20
90.673706
 11
223.953003
 21
152.673706
  0
LINE
  8
LC-008-003-----0
 62
     2
  6
DASHDOT
 10
151.753006
 20
88.791283
 11
151.753006
 21
161.970917
  0
LINE
  8
LC-004-006-----0
 62
     2
  6
DASHED
 10
155.953003
 20
90.673706
 11
155.953003
 21
152.673706
  0
LINE
  8
LC-004-006-----0
 62
     2
  6
DASHED
 10
147.552994
 20
90.673706
 11
147.552994
 21
152.673706
  0
LINE
  8
LC-004-006-----0
 62
     2
  6
DASHED
 10
144.753006
 20
152.673706
 11
159.253006
 21
152.673706
  0
LINE
  8
LC-004-006-----0
 62
     2
  6
DASHED
 10
159.253006
 20
152.673706
 11
159.253006
 21
160.673706
  0
LINE
  8
LC-004-006-----0
 62
     2
  6
DASHED
 10
226.753006
 20
152.673706
 11
212.253006
 21
152.673706
  0
LINE
  8
LC-004-006-----0
 62
     2
  6
DASHED
 10
212.253006
 20
152.673706
 11
212.253006
 21
160.673706
  0
LINE
  8
LC-003-002-----0
 62
     1
  6
CONTINUOUS
 10
218.753006
 20
21.901201
 11
218.753006
 21
12.334235
  0
LINE
  8
LC-008-003-----0
 62
     2
  6
DASHDOT
 10
228.843521
 20
4.901201
 11
210.952927
 21
4.901201
  0
LINE
  8
LC-008-003-----0
 62
     2
  6
DASHDOT
 10
141.734421
 20
4.901201
 11
160.553070
 21
4.901201
  0
CIRCLE
  8
LC-003-002-----0
 62
     1
  6
CONTINUOUS
 10
151.753006
 20
4.901201
 40
4.200000
  0
LINE
  8
LC-008-003-----0
 62
     2
  6
DASHDOT
 10
151.753006
 20
13.738357
 11
151.753006
 21
-4.001862
  0
ARC
  8
LC-003-002-----0
 62
     1
  6
CONTINUOUS
 10
151.753006
 20
4.901201
 40
7.500000
 50
269.999997
 51
90.000003
  0
LINE
  8
LC-003-002-----0
 62
     1
  6
CONTINUOUS
 10
151.753006
 20
12.401201
 11
142.753006
 21
12.401201
  0
LINE
  8
LC-003-002-----0
 62
     1
  6
CONTINUOUS
 10
151.753006
 20
-2.598799
 11
142.753006
 21
-2.598799
  0
LINE
  8
LC-008-003-----0
 62
     2
  6
DASHDOT
 10
141.879105
 20
-40.098801
 11
160.553070
 21
-40.098801
  0
CIRCLE
  8
LC-003-002-----0
 62
     1
  6
CONTINUOUS
 10
151.753006
 20
-40.098801
 40
4.200000
  0
LINE
  8
LC-008-003-----0
 62
     2
  6
DASHDOT
 10
151.753006
 20
-31.261642
 11
151.753006
 21
-49.001862
  0
ARC
  8
LC-003-002-----0
 62
     1
  6
CONTINUOUS
 10
151.753006
 20
-40.098801
 40
7.500000
 50
269.999997
 51
90.000003
  0
LINE
  8
LC-003-002-----0
 62
     1
  6
CONTINUOUS
 10
151.753006
 20
-32.598801
 11
142.753006
 21
-32.598801
  0
LINE
  8
LC-003-002-----0
 62
     1
  6
CONTINUOUS
 10
151.753006
 20
-47.598801
 11
142.753006
 21
-47.598801
  0
LINE
  8
LC-003-002-----0
 62
     1
  6
CONTINUOUS
 10
218.753006
 20
-2.531834
 11
218.753006
 21
-32.665764
  0
CIRCLE
  8
LC-003-002-----0
 62
     1
  6
CONTINUOUS
 10
219.753006
 20
4.901201
 40
4.200000
  0
LINE
  8
LC-008-003-----0
 62
     2
  6
DASHDOT
 10
219.753006
 20
13.738357
 11
219.753006
 21
-4.001862
  0
ARC
  8
LC-003-002-----0
 62
     1
  6
CONTINUOUS
 10
219.753006
 20
4.901201
 40
7.500000
 50
90.000003
 51
269.999997
  0
LINE
  8
LC-003-002-----0
 62
     1
  6
CONTINUOUS
 10
219.753006
 20
12.401201
 11
228.753006
 21
12.401201
  0
LINE
  8
LC-003-002-----0
 62
     1
  6
CONTINUOUS
 10
219.753006
 20
-2.598799
 11
228.753006
 21
-2.598799
  0
LINE
  8
LC-008-003-----0
 62
     2
  6
DASHDOT
 10
228.843521
 20
-40.098801
 11
210.952927
 21
-40.098801
  0
CIRCLE
  8
LC-003-002-----0
 62
     1
  6
CONTINUOUS
 10
219.753006
 20
-40.098801
 40
4.200000
  0
LINE
  8
LC-008-003-----0
 62
     2
  6
DASHDOT
 10
219.753006
 20
-31.261642
 11
219.753006
 21
-49.001862
  0
ARC
  8
LC-003-002-----0
 62
     1
  6
CONTINUOUS
 10
219.753006
 20
-40.098801
 40
7.500000
 50
90.000003
 51
269.999997
  0
LINE
  8
LC-003-002-----0
 62
     1
  6
CONTINUOUS
 10
219.753006
 20
-32.598801
 11
228.753006
 21
-32.598801
  0
LINE
  8
LC-003-002-----0
 62
     1
  6
CONTINUOUS
 10
219.753006
 20
-47.598801
 11
228.753006
 21
-47.598801
  0
LINE
  8
LC-003-002-----0
 62
     1
  6
CONTINUOUS
 10
218.753006
 20
-47.531834
 11
218.753006
 21
-57.098801
  0
LINE
  8
LC-003-002-----0
 62
     1
  6
CONTINUOUS
 10
152.753006
 20
-2.531834
 11
152.753006
 21
-32.665764
  0
LINE
  8
LC-004-006-----0
 62
     2
  6
DASHED
 10
209.253006
 20
21.901201
 11
209.253006
 21
-57.098801
  0
LINE
  8
LC-008-003-----0
 62
     2
  6
DASHDOT
 10
295.873322
 20
88.111603
 11
295.873322
 21
161.970917
  0
LINE
  8
LC-004-006-----0
 62
     2
  6
DASHED
 10
300.073334
 20
90.673706
 11
300.073334
 21
152.673706
  0
LINE
  8
LC-004-006-----0
 62
     2
  6
DASHED
 10
291.673340
 20
90.673706
 11
291.673340
 21
152.673706
  0
LINE
  8
LC-003-002-----0
 62
     1
  6
CONTINUOUS
 10
288.373322
 20
152.673706
 11
303.373322
 21
152.673706
  0
LINE
  8
LC-003-002-----0
 62
     1
  6
CONTINUOUS
 10
303.373322
 20
152.673706
 11
303.373322
 21
160.673706
  0
LINE
  8
LC-003-002-----0
 62
     1
  6
CONTINUOUS
 10
288.373322
 20
152.673706
 11
288.373322
 21
160.673706
  0
LINE
  8
LC-004-006-----0
 62
     2
  6
DASHED
 10
345.073334
 20
90.673706
 11
345.073334
 21
152.673706
  0
LINE
  8
LC-004-006-----0
 62
     2
  6
DASHED
 10
336.673340
 20
90.673706
 11
336.673340
 21
152.673706
  0
LINE
  8
LC-003-002-----0
 62
     1
  6
CONTINUOUS
 10
333.373322
 20
152.673706
 11
348.373322
 21
152.673706
  0
LINE
  8
LC-003-002-----0
 62
     1
  6
CONTINUOUS
 10
348.373322
 20
152.673706
 11
348.373322
 21
160.673706
  0
LINE
  8
LC-003-002-----0
 62
     1
  6
CONTINUOUS
 10
333.373322
 20
152.673706
 11
333.373322
 21
160.673706
  0
LINE
  8
LC-004-006-----0
 62
     2
  6
DASHED
 10
278.873322
 20
149.173706
 11
357.873322
 21
149.173706
  0
LINE
  8
LC-004-006-----0
 62
     2
  6
DASHED
 10
278.873322
 20
102.173706
 11
357.873322
 21
102.173706
  0
LINE
  8
LC-004-006-----0
 62
     2
  6
DASHED
 10
156.753006
 20
90.673706
 11
156.753006
 21
112.673706
  0
LINE
  8
LC-004-006-----0
 62
     2
  6
DASHED
 10
146.753006
 20
90.673706
 11
146.753006
 21
112.673706
  0
LINE
  8
LC-004-006-----0
 62
     2
  6
DASHED
 10
224.753006
 20
90.673706
 11
224.753006
 21
112.673706
  0
LINE
  8
LC-004-006-----0
 62
     2
  6
DASHED
 10
214.753006
 20
90.673706
 11
214.753006
 21
112.673706
  0
LINE
  8
LC-004-006-----0
 62
     2
  6
DASHED
 10
146.753006
 20
112.673706
 11
156.753006
 21
112.673706
  0
CIRCLE
  8
LC-003-002-----0
 62
     1
  6
CONTINUOUS
 10
185.753006
 20
125.673706
 40
16.000000
  0
LINE
  8
LC-004-006-----0
 62
     2
  6
DASHED
 10
214.753006
 20
112.673706
 11
224.753006
 21
112.673706
  0
LINE
  8
LC-004-006-----0
 62
     2
  6
DASHED
 10
300.873322
 20
90.673706
 11
300.873322
 21
112.673706
  0
LINE
  8
LC-004-006-----0
 62
     2
  6
DASHED
 10
290.873322
 20
112.673706
 11
300.873322
 21
112.673706
  0
LINE
  8
LC-004-006-----0
 62
     2
  6
DASHED
 10
290.873322
 20
90.673706
 11
290.873322
 21
112.673706
  0
LINE
  8
LC-004-006-----0
 62
     2
  6
DASHED
 10
335.873322
 20
112.673706
 11
345.873322
 21
112.673706
  0
LINE
  8
LC-004-006-----0
 62
     2
  6
DASHED
 10
345.873322
 20
90.673706
 11
345.873322
 21
112.673706
  0
LINE
  8
LC-004-006-----0
 62
     2
  6
DASHED
 10
335.873322
 20
90.673706
 11
335.873322
 21
112.673706
  0
ARC
  8
LC-006-012-----0
 62
     2
  6
CONTINUOUS
 10
151.753006
 20
4.901201
 40
5.000000
 50
166.981719
 51
103.510663
  0
ARC
  8
LC-006-012-----0
 62
     2
  6
CONTINUOUS
 10
219.753006
 20
4.901201
 40
5.000000
 50
76.489335
 51
13.018285
  0
ARC
  8
LC-006-012-----0
 62
     2
  6
CONTINUOUS
 10
219.753006
 20
-40.098801
 40
5.000000
 50
76.489335
 51
13.018285
  0
ARC
  8
LC-006-012-----0
 62
     2
  6
CONTINUOUS
 10
151.753006
 20
-40.098801
 40
5.000000
 50
166.981719
 51
103.510663
  0
LINE
  8
LC-003-002-----0
 62
     1
  6
CONTINUOUS
 10
152.753006
 20
-47.531834
 11
152.753006
 21
-57.098801
  0
LINE
  8
LC-003-002-----0
 62
     1
  6
CONTINUOUS
 10
152.753006
 20
21.901201
 11
152.753006
 21
12.334235
  0
ENDSEC
  0
EOF
