  0
SECTION
  2
HEADER
  9
$LIMMIN
 10
504.019226
 20
-144.523209
  9
$LIMMAX
 10
837.776611
 20
214.096497
  9
$EXTMIN
 10
504.019226
 20
-144.523209
  9
$EXTMAX
 10
837.776611
 20
214.096497
  0
ENDSEC
  0
SECTION
  2
TABLES
  0
TABLE
  2
LTYPE
 70
     3
  0
LTYPE
  2
CONTINUOUS
 70
    64
  3
Ausgezogene Linie
 72
    65
 73
     0
 40
0.0
  0
LTYPE
  2
DASHED
 70
    64
  3
__ __ __ __ __ __ __ __ __ __ __ __ __ __ __
 72
    65
 73
     2
 40
0.75
 49
0.5
 49
-0.25
  0
LTYPE
  2
DASHDOT
 70
    64
  3
__ . __ . __ . __ . __ . __ . __ . __ . __ . __
 72
    65
 73
     4
 40
1.0
 49
0.5
 49
-0.25
 49
0.0
 49
-0.25
  0
ENDTAB
  0
TABLE
  2
LAYER
 70
     5
  0
LAYER
  2
LC-INFO-1-1-MM-A0-0
 70
    64
 62
     7
  6
CONTINUOUS
  0
LAYER
  2
LC-003-002-----0
 70
    64
 62
     7
  6
CONTINUOUS
  0
LAYER
  2
LC-008-003-----0
 70
    64
 62
     7
  6
CONTINUOUS
  0
LAYER
  2
LC-004-006-----0
 70
    64
 62
     7
  6
CONTINUOUS
  0
LAYER
  2
LC-006-012-----0
 70
    64
 62
     7
  6
CONTINUOUS
  0
ENDTAB
  0
TABLE
  2
STYLE
 70
     1
  0
STYLE
  2
TXT8
 70
    64
 40
0.0
 41
1.0
 50
0.0
 71
     0
 42
3.500000
  3
TXT8
  4

  0
ENDTAB
  0
ENDSEC
  0
SECTION
  2
BLOCKS
  0
ENDSEC
  0
SECTION
  2
ENTITIES
  0
LINE
  8
LC-006-012-----0
 62
     2
  6
CONTINUOUS
 10
680.666931
 20
180.673706
 11
680.814392
 21
180.269608
  0
LINE
  8
LC-006-012-----0
 62
     2
  6
CONTINUOUS
 10
680.814392
 20
180.269608
 11
681.203430
 21
179.147614
  0
LINE
  8
LC-006-012-----0
 62
     2
  6
CONTINUOUS
 10
681.203430
 20
179.147614
 11
681.753723
 21
177.443161
  0
LINE
  8
LC-006-012-----0
 62
     2
  6
CONTINUOUS
 10
681.753723
 20
177.443161
 11
683.017029
 21
172.828613
  0
LINE
  8
LC-006-012-----0
 62
     2
  6
CONTINUOUS
 10
683.017029
 20
172.828613
 11
683.962097
 21
167.509430
  0
LINE
  8
LC-006-012-----0
 62
     2
  6
CONTINUOUS
 10
683.962097
 20
167.509430
 11
684.114685
 21
164.924194
  0
LINE
  8
LC-006-012-----0
 62
     2
  6
CONTINUOUS
 10
684.114685
 20
164.924194
 11
683.979370
 21
162.537155
  0
LINE
  8
LC-006-012-----0
 62
     2
  6
CONTINUOUS
 10
683.979370
 20
162.537155
 11
683.640442
 21
160.347916
  0
LINE
  8
LC-006-012-----0
 62
     2
  6
CONTINUOUS
 10
683.640442
 20
160.347916
 11
683.215637
 21
158.323334
  0
LINE
  8
LC-006-012-----0
 62
     2
  6
CONTINUOUS
 10
683.215637
 20
158.323334
 11
682.822876
 21
156.430283
  0
LINE
  8
LC-006-012-----0
 62
     2
  6
CONTINUOUS
 10
682.822876
 20
156.430283
 11
682.579895
 21
154.635620
  0
LINE
  8
LC-006-012-----0
 62
     2
  6
CONTINUOUS
 10
682.579895
 20
154.635620
 11
682.604553
 21
152.906219
  0
LINE
  8
LC-006-012-----0
 62
     2
  6
CONTINUOUS
 10
682.604553
 20
152.906219
 11
682.966736
 21
151.220123
  0
LINE
  8
LC-006-012-----0
 62
     2
  6
CONTINUOUS
 10
682.966736
 20
151.220123
 11
683.569458
 21
149.509186
  0
LINE
  8
LC-006-012-----0
 62
     2
  6
CONTINUOUS
 10
683.569458
 20
149.509186
 11
684.274597
 21
147.716980
  0
LINE
  8
LC-006-012-----0
 62
     2
  6
CONTINUOUS
 10
684.274597
 20
147.716980
 11
684.944275
 21
145.787125
  0
LINE
  8
LC-006-012-----0
 62
     2
  6
CONTINUOUS
 10
684.944275
 20
145.787125
 11
685.440308
 21
143.663208
  0
LINE
  8
LC-006-012-----0
 62
     2
  6
CONTINUOUS
 10
685.440308
 20
143.663208
 11
685.624817
 21
141.288849
  0
LINE
  8
LC-006-012-----0
 62
     2
  6
CONTINUOUS
 10
685.624817
 20
141.288849
 11
685.624817
 21
141.288849
  0
LINE
  8
LC-006-012-----0
 62
     2
  6
CONTINUOUS
 10
685.624817
 20
141.288849
 11
685.376892
 21
138.435837
  0
LINE
  8
LC-006-012-----0
 62
     2
  6
CONTINUOUS
 10
685.376892
 20
138.435837
 11
684.812744
 21
135.584656
  0
LINE
  8
LC-006-012-----0
 62
     2
  6
CONTINUOUS
 10
684.812744
 20
135.584656
 11
684.145752
 21
133.098465
  0
LINE
  8
LC-006-012-----0
 62
     2
  6
CONTINUOUS
 10
684.145752
 20
133.098465
 11
683.589111
 21
131.340424
  0
LINE
  8
LC-006-012-----0
 62
     2
  6
CONTINUOUS
 10
683.589111
 20
131.340424
 11
683.356201
 21
130.673706
  0
LINE
  8
LC-006-012-----0
 62
     2
  6
CONTINUOUS
 10
833.200073
 20
180.673706
 11
833.080383
 21
180.200500
  0
LINE
  8
LC-006-012-----0
 62
     2
  6
CONTINUOUS
 10
833.080383
 20
180.200500
 11
832.774353
 21
178.903885
  0
LINE
  8
LC-006-012-----0
 62
     2
  6
CONTINUOUS
 10
832.774353
 20
178.903885
 11
832.361633
 21
176.968338
  0
LINE
  8
LC-006-012-----0
 62
     2
  6
CONTINUOUS
 10
832.361633
 20
176.968338
 11
831.921753
 21
174.578339
  0
LINE
  8
LC-006-012-----0
 62
     2
  6
CONTINUOUS
 10
831.921753
 20
174.578339
 11
831.534363
 21
171.918396
  0
LINE
  8
LC-006-012-----0
 62
     2
  6
CONTINUOUS
 10
831.534363
 20
171.918396
 11
831.278992
 21
169.172989
  0
LINE
  8
LC-006-012-----0
 62
     2
  6
CONTINUOUS
 10
831.278992
 20
169.172989
 11
831.235291
 21
166.526596
  0
LINE
  8
LC-006-012-----0
 62
     2
  6
CONTINUOUS
 10
831.235291
 20
166.526596
 11
831.439636
 21
164.157547
  0
LINE
  8
LC-006-012-----0
 62
     2
  6
CONTINUOUS
 10
831.439636
 20
164.157547
 11
831.779663
 21
162.017746
  0
LINE
  8
LC-006-012-----0
 62
     2
  6
CONTINUOUS
 10
831.779663
 20
162.017746
 11
832.108154
 21
160.060959
  0
LINE
  8
LC-006-012-----0
 62
     2
  6
CONTINUOUS
 10
832.108154
 20
160.060959
 11
832.277832
 21
158.240982
  0
LINE
  8
LC-006-012-----0
 62
     2
  6
CONTINUOUS
 10
832.277832
 20
158.240982
 11
832.141418
 21
156.511612
  0
LINE
  8
LC-006-012-----0
 62
     2
  6
CONTINUOUS
 10
832.141418
 20
156.511612
 11
831.517761
 21
154.609879
  0
LINE
  8
LC-006-012-----0
 62
     2
  6
CONTINUOUS
 10
831.517761
 20
154.609879
 11
830.582092
 21
152.650009
  0
LINE
  8
LC-006-012-----0
 62
     2
  6
CONTINUOUS
 10
830.582092
 20
152.650009
 11
829.595520
 21
150.517807
  0
LINE
  8
LC-006-012-----0
 62
     2
  6
CONTINUOUS
 10
829.595520
 20
150.517807
 11
828.819092
 21
148.099030
  0
LINE
  8
LC-006-012-----0
 62
     2
  6
CONTINUOUS
 10
828.819092
 20
148.099030
 11
828.458801
 21
145.423645
  0
LINE
  8
LC-006-012-----0
 62
     2
  6
CONTINUOUS
 10
828.458801
 20
145.423645
 11
828.447205
 21
142.545349
  0
LINE
  8
LC-006-012-----0
 62
     2
  6
CONTINUOUS
 10
828.447205
 20
142.545349
 11
828.691650
 21
139.636612
  0
LINE
  8
LC-006-012-----0
 62
     2
  6
CONTINUOUS
 10
828.691650
 20
139.636612
 11
829.577881
 21
134.417831
  0
LINE
  8
LC-006-012-----0
 62
     2
  6
CONTINUOUS
 10
829.577881
 20
134.417831
 11
830.376221
 21
131.147217
  0
LINE
  8
LC-006-012-----0
 62
     2
  6
CONTINUOUS
 10
830.376221
 20
131.147217
 11
830.510742
 21
130.673706
  0
LINE
  8
LC-003-002-----0
 62
     1
  6
CONTINUOUS
 10
505.876465
 20
105.673706
 11
505.876465
 21
197.673706
  0
LINE
  8
LC-003-002-----0
 62
     1
  6
CONTINUOUS
 10
518.876465
 20
210.673706
 11
622.876465
 21
210.673706
  0
LINE
  8
LC-003-002-----0
 62
     1
  6
CONTINUOUS
 10
635.876465
 20
197.673706
 11
635.876465
 21
105.673706
  0
LINE
  8
LC-003-002-----0
 62
     1
  6
CONTINUOUS
 10
635.876465
 20
105.673706
 11
505.876465
 21
105.673706
  0
LINE
  8
LC-003-002-----0
 62
     1
  6
CONTINUOUS
 10
505.876465
 20
197.673706
 11
518.876465
 21
210.673706
  0
LINE
  8
LC-003-002-----0
 62
     1
  6
CONTINUOUS
 10
622.876465
 20
210.673706
 11
635.876465
 21
197.673706
  0
LINE
  8
LC-008-003-----0
 62
     2
  6
DASHDOT
 10
570.876465
 20
115.154709
 11
570.876465
 21
197.673706
  0
LINE
  8
LC-008-003-----0
 62
     2
  6
DASHDOT
 10
612.373230
 20
155.673706
 11
529.770325
 21
155.673706
  0
CIRCLE
  8
LC-003-002-----0
 62
     1
  6
CONTINUOUS
 10
570.876465
 20
155.673706
 40
25.000000
  0
CIRCLE
  8
LC-003-002-----0
 62
     1
  6
CONTINUOUS
 10
570.876465
 20
155.673706
 40
37.500000
  0
LINE
  8
LC-003-002-----0
 62
     1
  6
CONTINUOUS
 10
701.946228
 20
210.673706
 11
814.946228
 21
210.673706
  0
LINE
  8
LC-003-002-----0
 62
     1
  6
CONTINUOUS
 10
701.946228
 20
105.673706
 11
701.946228
 21
210.673706
  0
LINE
  8
LC-003-002-----0
 62
     1
  6
CONTINUOUS
 10
814.946228
 20
105.673706
 11
814.946228
 21
210.673706
  0
LINE
  8
LC-003-002-----0
 62
     1
  6
CONTINUOUS
 10
701.946228
 20
105.673706
 11
814.946228
 21
105.673706
  0
LINE
  8
LC-008-003-----0
 62
     2
  6
DASHDOT
 10
677.067871
 20
155.673706
 11
837.776611
 21
155.673706
  0
LINE
  8
LC-003-002-----0
 62
     1
  6
CONTINUOUS
 10
830.510742
 20
130.673706
 11
814.946228
 21
130.673706
  0
LINE
  8
LC-003-002-----0
 62
     1
  6
CONTINUOUS
 10
833.200073
 20
180.673706
 11
814.946228
 21
180.673706
  0
LINE
  8
LC-004-006-----0
 62
     2
  6
DASHED
 10
814.946228
 20
180.673706
 11
701.946228
 21
180.673706
  0
LINE
  8
LC-003-002-----0
 62
     1
  6
CONTINUOUS
 10
701.946228
 20
180.673706
 11
680.666931
 21
180.673706
  0
LINE
  8
LC-004-006-----0
 62
     2
  6
DASHED
 10
814.946228
 20
130.673706
 11
701.946228
 21
130.673706
  0
LINE
  8
LC-003-002-----0
 62
     1
  6
CONTINUOUS
 10
701.946228
 20
130.673706
 11
683.356201
 21
130.673706
  0
LINE
  8
LC-008-003-----0
 62
     2
  6
DASHDOT
 10
624.876465
 20
100.972916
 11
624.876465
 21
214.096497
  0
LINE
  8
LC-008-003-----0
 62
     2
  6
DASHDOT
 10
516.876465
 20
100.972916
 11
516.876465
 21
214.096497
  0
LINE
  8
LC-004-006-----0
 62
     2
  6
DASHED
 10
506.876465
 20
198.673706
 11
526.876465
 21
198.673706
  0
LINE
  8
LC-004-006-----0
 62
     2
  6
DASHED
 10
523.626465
 20
105.673706
 11
523.626465
 21
198.673706
  0
LINE
  8
LC-004-006-----0
 62
     2
  6
DASHED
 10
510.126465
 20
105.673706
 11
510.126465
 21
198.673706
  0
LINE
  8
LC-004-006-----0
 62
     2
  6
DASHED
 10
526.876465
 20
198.673706
 11
526.876465
 21
210.673706
  0
LINE
  8
LC-004-006-----0
 62
     2
  6
DASHED
 10
634.876465
 20
198.673706
 11
614.876465
 21
198.673706
  0
LINE
  8
LC-004-006-----0
 62
     2
  6
DASHED
 10
618.126465
 20
105.673706
 11
618.126465
 21
198.673706
  0
LINE
  8
LC-004-006-----0
 62
     2
  6
DASHED
 10
614.876465
 20
198.673706
 11
614.876465
 21
210.673706
  0
LINE
  8
LC-004-006-----0
 62
     2
  6
DASHED
 10
631.626465
 20
105.673706
 11
631.626465
 21
198.673706
  0
LINE
  8
LC-003-002-----0
 62
     1
  6
CONTINUOUS
 10
701.946228
 20
197.673706
 11
814.946228
 21
197.673706
  0
LINE
  8
LC-003-002-----0
 62
     1
  6
CONTINUOUS
 10
773.446228
 20
198.673706
 11
773.446228
 21
210.673706
  0
LINE
  8
LC-003-002-----0
 62
     1
  6
CONTINUOUS
 10
723.446228
 20
198.673706
 11
723.446228
 21
210.673706
  0
LINE
  8
LC-008-003-----0
 62
     2
  6
DASHDOT
 10
733.446228
 20
100.972916
 11
733.446228
 21
214.096497
  0
LINE
  8
LC-004-006-----0
 62
     2
  6
DASHED
 10
740.196228
 20
105.673706
 11
740.196228
 21
198.673706
  0
LINE
  8
LC-004-006-----0
 62
     2
  6
DASHED
 10
726.696228
 20
105.673706
 11
726.696228
 21
198.673706
  0
LINE
  8
LC-003-002-----0
 62
     1
  6
CONTINUOUS
 10
723.446228
 20
198.673706
 11
743.446228
 21
198.673706
  0
LINE
  8
LC-003-002-----0
 62
     1
  6
CONTINUOUS
 10
743.446228
 20
198.673706
 11
743.446228
 21
210.673706
  0
LINE
  8
LC-004-006-----0
 62
     2
  6
DASHED
 10
790.196228
 20
105.673706
 11
790.196228
 21
198.673706
  0
LINE
  8
LC-004-006-----0
 62
     2
  6
DASHED
 10
776.696228
 20
105.673706
 11
776.696228
 21
198.673706
  0
LINE
  8
LC-003-002-----0
 62
     1
  6
CONTINUOUS
 10
773.446228
 20
198.673706
 11
793.446228
 21
198.673706
  0
LINE
  8
LC-003-002-----0
 62
     1
  6
CONTINUOUS
 10
793.446228
 20
198.673706
 11
793.446228
 21
210.673706
  0
LINE
  8
LC-008-003-----0
 62
     2
  6
DASHDOT
 10
783.446228
 20
100.972916
 11
783.446228
 21
214.096497
  0
LINE
  8
LC-004-006-----0
 62
     2
  6
DASHED
 10
701.946228
 20
193.173706
 11
814.946228
 21
193.173706
  0
LINE
  8
LC-004-006-----0
 62
     2
  6
DASHED
 10
701.946228
 20
118.173706
 11
814.946228
 21
118.173706
  0
LINE
  8
LC-004-006-----0
 62
     2
  6
DASHED
 10
632.876465
 20
139.673706
 11
616.876465
 21
139.673706
  0
LINE
  8
LC-004-006-----0
 62
     2
  6
DASHED
 10
524.876465
 20
105.673706
 11
524.876465
 21
139.673706
  0
LINE
  8
LC-004-006-----0
 62
     2
  6
DASHED
 10
508.876465
 20
105.673706
 11
508.876465
 21
139.673706
  0
LINE
  8
LC-004-006-----0
 62
     2
  6
DASHED
 10
632.876465
 20
105.673706
 11
632.876465
 21
139.673706
  0
LINE
  8
LC-004-006-----0
 62
     2
  6
DASHED
 10
616.876465
 20
105.673706
 11
616.876465
 21
139.673706
  0
LINE
  8
LC-004-006-----0
 62
     2
  6
DASHED
 10
508.876465
 20
139.673706
 11
524.876465
 21
139.673706
  0
CIRCLE
  8
LC-003-002-----0
 62
     1
  6
CONTINUOUS
 10
570.876465
 20
155.673706
 40
26.000000
  0
LINE
  8
LC-004-006-----0
 62
     2
  6
DASHED
 10
741.446228
 20
139.673706
 11
725.446228
 21
139.673706
  0
LINE
  8
LC-004-006-----0
 62
     2
  6
DASHED
 10
741.446228
 20
105.673706
 11
741.446228
 21
139.673706
  0
LINE
  8
LC-004-006-----0
 62
     2
  6
DASHED
 10
725.446228
 20
105.673706
 11
725.446228
 21
139.673706
  0
LINE
  8
LC-004-006-----0
 62
     2
  6
DASHED
 10
791.446228
 20
139.673706
 11
775.446228
 21
139.673706
  0
LINE
  8
LC-004-006-----0
 62
     2
  6
DASHED
 10
791.446228
 20
105.673706
 11
791.446228
 21
139.673706
  0
LINE
  8
LC-004-006-----0
 62
     2
  6
DASHED
 10
775.446228
 20
105.673706
 11
775.446228
 21
139.673706
  0
LINE
  8
LC-006-012-----0
 62
     2
  6
CONTINUOUS
 10
545.876465
 20
-140.041046
 11
546.280579
 21
-139.893524
  0
LINE
  8
LC-006-012-----0
 62
     2
  6
CONTINUOUS
 10
546.280579
 20
-139.893524
 11
547.402527
 21
-139.504486
  0
LINE
  8
LC-006-012-----0
 62
     2
  6
CONTINUOUS
 10
547.402527
 20
-139.504486
 11
549.106995
 21
-138.954193
  0
LINE
  8
LC-006-012-----0
 62
     2
  6
CONTINUOUS
 10
549.106995
 20
-138.954193
 11
553.721558
 21
-137.690918
  0
LINE
  8
LC-006-012-----0
 62
     2
  6
CONTINUOUS
 10
553.721558
 20
-137.690918
 11
559.040710
 21
-136.745819
  0
LINE
  8
LC-006-012-----0
 62
     2
  6
CONTINUOUS
 10
559.040710
 20
-136.745819
 11
561.625977
 21
-136.593262
  0
LINE
  8
LC-006-012-----0
 62
     2
  6
CONTINUOUS
 10
561.625977
 20
-136.593262
 11
564.013000
 21
-136.728577
  0
LINE
  8
LC-006-012-----0
 62
     2
  6
CONTINUOUS
 10
564.013000
 20
-136.728577
 11
566.202271
 21
-137.067520
  0
LINE
  8
LC-006-012-----0
 62
     2
  6
CONTINUOUS
 10
566.202271
 20
-137.067520
 11
568.226807
 21
-137.492294
  0
LINE
  8
LC-006-012-----0
 62
     2
  6
CONTINUOUS
 10
568.226807
 20
-137.492294
 11
570.119873
 21
-137.885071
  0
LINE
  8
LC-006-012-----0
 62
     2
  6
CONTINUOUS
 10
570.119873
 20
-137.885071
 11
571.914551
 21
-138.128036
  0
LINE
  8
LC-006-012-----0
 62
     2
  6
CONTINUOUS
 10
571.914551
 20
-138.128036
 11
573.643921
 21
-138.103394
  0
LINE
  8
LC-006-012-----0
 62
     2
  6
CONTINUOUS
 10
573.643921
 20
-138.103394
 11
575.330017
 21
-137.741211
  0
LINE
  8
LC-006-012-----0
 62
     2
  6
CONTINUOUS
 10
575.330017
 20
-137.741211
 11
577.040955
 21
-137.138504
  0
LINE
  8
LC-006-012-----0
 62
     2
  6
CONTINUOUS
 10
577.040955
 20
-137.138504
 11
578.833191
 21
-136.433334
  0
LINE
  8
LC-006-012-----0
 62
     2
  6
CONTINUOUS
 10
578.833191
 20
-136.433334
 11
580.763062
 21
-135.763687
  0
LINE
  8
LC-006-012-----0
 62
     2
  6
CONTINUOUS
 10
580.763062
 20
-135.763687
 11
582.886963
 21
-135.267624
  0
LINE
  8
LC-006-012-----0
 62
     2
  6
CONTINUOUS
 10
582.886963
 20
-135.267624
 11
585.261292
 21
-135.083130
  0
LINE
  8
LC-006-012-----0
 62
     2
  6
CONTINUOUS
 10
585.261292
 20
-135.083130
 11
585.261292
 21
-135.083130
  0
LINE
  8
LC-006-012-----0
 62
     2
  6
CONTINUOUS
 10
585.261292
 20
-135.083130
 11
588.114319
 21
-135.331070
  0
LINE
  8
LC-006-012-----0
 62
     2
  6
CONTINUOUS
 10
588.114319
 20
-135.331070
 11
590.965515
 21
-135.895187
  0
LINE
  8
LC-006-012-----0
 62
     2
  6
CONTINUOUS
 10
590.965515
 20
-135.895187
 11
593.451721
 21
-136.562195
  0
LINE
  8
LC-006-012-----0
 62
     2
  6
CONTINUOUS
 10
593.451721
 20
-136.562195
 11
595.209717
 21
-137.118805
  0
LINE
  8
LC-006-012-----0
 62
     2
  6
CONTINUOUS
 10
595.209717
 20
-137.118805
 11
595.876465
 21
-137.351730
  0
LINE
  8
LC-006-012-----0
 62
     2
  6
CONTINUOUS
 10
545.876465
 20
22.492126
 11
546.349670
 21
22.372435
  0
LINE
  8
LC-006-012-----0
 62
     2
  6
CONTINUOUS
 10
546.349670
 20
22.372435
 11
547.646301
 21
22.066422
  0
LINE
  8
LC-006-012-----0
 62
     2
  6
CONTINUOUS
 10
547.646301
 20
22.066422
 11
549.581848
 21
21.653683
  0
LINE
  8
LC-006-012-----0
 62
     2
  6
CONTINUOUS
 10
549.581848
 20
21.653683
 11
551.971802
 21
21.213814
  0
LINE
  8
LC-006-012-----0
 62
     2
  6
CONTINUOUS
 10
551.971802
 20
21.213814
 11
554.631775
 21
20.826406
  0
LINE
  8
LC-006-012-----0
 62
     2
  6
CONTINUOUS
 10
554.631775
 20
20.826406
 11
557.377197
 21
20.571058
  0
LINE
  8
LC-006-012-----0
 62
     2
  6
CONTINUOUS
 10
557.377197
 20
20.571058
 11
560.023560
 21
20.527365
  0
LINE
  8
LC-006-012-----0
 62
     2
  6
CONTINUOUS
 10
560.023560
 20
20.527365
 11
562.392578
 21
20.731697
  0
LINE
  8
LC-006-012-----0
 62
     2
  6
CONTINUOUS
 10
562.392578
 20
20.731697
 11
564.532410
 21
21.071732
  0
LINE
  8
LC-006-012-----0
 62
     2
  6
CONTINUOUS
 10
564.532410
 20
21.071732
 11
566.489197
 21
21.400208
  0
LINE
  8
LC-006-012-----0
 62
     2
  6
CONTINUOUS
 10
566.489197
 20
21.400208
 11
568.309143
 21
21.569866
  0
LINE
  8
LC-006-012-----0
 62
     2
  6
CONTINUOUS
 10
568.309143
 20
21.569866
 11
570.038574
 21
21.433449
  0
LINE
  8
LC-006-012-----0
 62
     2
  6
CONTINUOUS
 10
570.038574
 20
21.433449
 11
571.940308
 21
20.809795
  0
LINE
  8
LC-006-012-----0
 62
     2
  6
CONTINUOUS
 10
571.940308
 20
20.809795
 11
573.900146
 21
19.874147
  0
LINE
  8
LC-006-012-----0
 62
     2
  6
CONTINUOUS
 10
573.900146
 20
19.874147
 11
576.032349
 21
18.887573
  0
LINE
  8
LC-006-012-----0
 62
     2
  6
CONTINUOUS
 10
576.032349
 20
18.887573
 11
578.451111
 21
18.111143
  0
LINE
  8
LC-006-012-----0
 62
     2
  6
CONTINUOUS
 10
578.451111
 20
18.111143
 11
581.126526
 21
17.750854
  0
LINE
  8
LC-006-012-----0
 62
     2
  6
CONTINUOUS
 10
581.126526
 20
17.750854
 11
584.004822
 21
17.739254
  0
LINE
  8
LC-006-012-----0
 62
     2
  6
CONTINUOUS
 10
584.004822
 20
17.739254
 11
586.913574
 21
17.983679
  0
LINE
  8
LC-006-012-----0
 62
     2
  6
CONTINUOUS
 10
586.913574
 20
17.983679
 11
592.132324
 21
18.869930
  0
LINE
  8
LC-006-012-----0
 62
     2
  6
CONTINUOUS
 10
592.132324
 20
18.869930
 11
595.402954
 21
19.668280
  0
LINE
  8
LC-006-012-----0
 62
     2
  6
CONTINUOUS
 10
595.402954
 20
19.668280
 11
595.876465
 21
19.802822
  0
LINE
  8
LC-003-002-----0
 62
     1
  6
CONTINUOUS
 10
505.876465
 20
-0.761708
 11
505.876465
 21
-113.761711
  0
LINE
  8
LC-003-002-----0
 62
     1
  6
CONTINUOUS
 10
505.876465
 20
-0.761708
 11
635.876465
 21
-0.761708
  0
LINE
  8
LC-003-002-----0
 62
     1
  6
CONTINUOUS
 10
635.876465
 20
-0.761708
 11
635.876465
 21
-113.761711
  0
LINE
  8
LC-003-002-----0
 62
     1
  6
CONTINUOUS
 10
505.876465
 20
-113.761711
 11
635.876465
 21
-113.761711
  0
LINE
  8
LC-008-003-----0
 62
     2
  6
DASHDOT
 10
570.876465
 20
29.931278
 11
570.876465
 21
-144.523209
  0
LINE
  8
LC-003-002-----0
 62
     1
  6
CONTINUOUS
 10
595.876465
 20
19.802822
 11
595.876465
 21
-0.761708
  0
LINE
  8
LC-003-002-----0
 62
     1
  6
CONTINUOUS
 10
545.876465
 20
22.492126
 11
545.876465
 21
-0.761707
  0
LINE
  8
LC-004-006-----0
 62
     2
  6
DASHED
 10
545.876465
 20
-0.761708
 11
545.876465
 21
-113.761711
  0
LINE
  8
LC-003-002-----0
 62
     1
  6
CONTINUOUS
 10
545.876465
 20
-113.761711
 11
545.876465
 21
-140.041046
  0
LINE
  8
LC-004-006-----0
 62
     2
  6
DASHED
 10
595.876465
 20
-0.761708
 11
595.876465
 21
-113.761711
  0
LINE
  8
LC-003-002-----0
 62
     1
  6
CONTINUOUS
 10
595.876465
 20
-113.761711
 11
595.876465
 21
-137.351730
  0
LINE
  8
LC-008-003-----0
 62
     2
  6
DASHDOT
 10
516.876465
 20
-20.344036
 11
516.876465
 21
-44.191422
  0
LINE
  8
LC-008-003-----0
 62
     2
  6
DASHDOT
 10
504.019226
 20
-32.261707
 11
528.666260
 21
-32.261707
  0
LINE
  8
LC-008-003-----0
 62
     2
  6
DASHDOT
 10
504.019226
 20
-82.261711
 11
528.666260
 21
-82.261711
  0
CIRCLE
  8
LC-003-002-----0
 62
     1
  6
CONTINUOUS
 10
516.876465
 20
-32.261707
 40
6.750000
  0
CIRCLE
  8
LC-003-002-----0
 62
     1
  6
CONTINUOUS
 10
516.876465
 20
-82.261711
 40
6.750000
  0
LINE
  8
LC-003-002-----0
 62
     1
  6
CONTINUOUS
 10
516.876465
 20
-72.261711
 11
505.876465
 21
-72.261711
  0
LINE
  8
LC-003-002-----0
 62
     1
  6
CONTINUOUS
 10
516.876465
 20
-92.261711
 11
505.876465
 21
-92.261711
  0
LINE
  8
LC-003-002-----0
 62
     1
  6
CONTINUOUS
 10
516.876465
 20
-42.261707
 11
505.876465
 21
-42.261707
  0
LINE
  8
LC-003-002-----0
 62
     1
  6
CONTINUOUS
 10
516.876465
 20
-22.261707
 11
505.876465
 21
-22.261707
  0
ARC
  8
LC-003-002-----0
 62
     1
  6
CONTINUOUS
 10
516.876465
 20
-32.261707
 40
10.000000
 50
269.999997
 51
90.000003
  0
ARC
  8
LC-003-002-----0
 62
     1
  6
CONTINUOUS
 10
516.876465
 20
-82.261711
 40
10.000000
 50
269.999997
 51
90.000003
  0
LINE
  8
LC-008-003-----0
 62
     2
  6
DASHDOT
 10
516.876465
 20
-70.671310
 11
516.876465
 21
-94.518692
  0
LINE
  8
LC-003-002-----0
 62
     1
  6
CONTINUOUS
 10
622.876465
 20
-0.761708
 11
622.876465
 21
-22.463749
  0
LINE
  8
LC-003-002-----0
 62
     1
  6
CONTINUOUS
 10
635.876465
 20
-0.761708
 11
635.876465
 21
-113.761711
  0
LINE
  8
LC-008-003-----0
 62
     2
  6
DASHDOT
 10
624.876465
 20
-20.344036
 11
624.876465
 21
-44.191422
  0
LINE
  8
LC-008-003-----0
 62
     2
  6
DASHDOT
 10
637.733704
 20
-32.261707
 11
613.086670
 21
-32.261707
  0
LINE
  8
LC-008-003-----0
 62
     2
  6
DASHDOT
 10
637.733704
 20
-82.261711
 11
613.086670
 21
-82.261711
  0
CIRCLE
  8
LC-003-002-----0
 62
     1
  6
CONTINUOUS
 10
624.876465
 20
-32.261707
 40
6.750000
  0
CIRCLE
  8
LC-003-002-----0
 62
     1
  6
CONTINUOUS
 10
624.876465
 20
-82.261711
 40
6.750000
  0
LINE
  8
LC-003-002-----0
 62
     1
  6
CONTINUOUS
 10
624.876465
 20
-72.261711
 11
635.876465
 21
-72.261711
  0
LINE
  8
LC-003-002-----0
 62
     1
  6
CONTINUOUS
 10
624.876465
 20
-92.261711
 11
635.876465
 21
-92.261711
  0
LINE
  8
LC-003-002-----0
 62
     1
  6
CONTINUOUS
 10
624.876465
 20
-42.261707
 11
635.876465
 21
-42.261707
  0
LINE
  8
LC-003-002-----0
 62
     1
  6
CONTINUOUS
 10
624.876465
 20
-22.261707
 11
635.876465
 21
-22.261707
  0
ARC
  8
LC-003-002-----0
 62
     1
  6
CONTINUOUS
 10
624.876465
 20
-32.261707
 40
10.000000
 50
90.000003
 51
269.999997
  0
ARC
  8
LC-003-002-----0
 62
     1
  6
CONTINUOUS
 10
624.876465
 20
-82.261711
 40
10.000000
 50
90.000003
 51
269.999997
  0
LINE
  8
LC-008-003-----0
 62
     2
  6
DASHDOT
 10
624.876465
 20
-70.671310
 11
624.876465
 21
-94.518692
  0
LINE
  8
LC-003-002-----0
 62
     1
  6
CONTINUOUS
 10
622.876465
 20
-92.059669
 11
622.876465
 21
-113.761711
  0
LINE
  8
LC-003-002-----0
 62
     1
  6
CONTINUOUS
 10
622.876465
 20
-42.059666
 11
622.876465
 21
-72.463753
  0
LINE
  8
LC-003-002-----0
 62
     1
  6
CONTINUOUS
 10
518.876465
 20
-0.761708
 11
518.876465
 21
-22.463749
  0
LINE
  8
LC-004-006-----0
 62
     2
  6
DASHED
 10
608.376465
 20
-0.761708
 11
608.376465
 21
-113.761711
  0
LINE
  8
LC-004-006-----0
 62
     2
  6
DASHED
 10
533.376465
 20
-0.761708
 11
533.376465
 21
-113.761711
  0
ARC
  8
LC-006-012-----0
 62
     2
  6
CONTINUOUS
 10
516.876465
 20
-32.261707
 40
8.000000
 50
170.265264
 51
98.903134
  0
ARC
  8
LC-006-012-----0
 62
     2
  6
CONTINUOUS
 10
624.876465
 20
-32.261707
 40
8.000000
 50
81.096865
 51
9.734731
  0
ARC
  8
LC-006-012-----0
 62
     2
  6
CONTINUOUS
 10
624.876465
 20
-82.261711
 40
8.000000
 50
81.096865
 51
9.734731
  0
ARC
  8
LC-006-012-----0
 62
     2
  6
CONTINUOUS
 10
516.876465
 20
-82.261711
 40
8.000000
 50
170.265264
 51
98.903134
  0
LINE
  8
LC-003-002-----0
 62
     1
  6
CONTINUOUS
 10
518.876465
 20
-42.059666
 11
518.876465
 21
-72.463753
  0
LINE
  8
LC-003-002-----0
 62
     1
  6
CONTINUOUS
 10
518.876465
 20
-92.059669
 11
518.876465
 21
-113.761711
  0
ENDSEC
  0
EOF
