  0
SECTION
  2
HEADER
  9
$LIMMIN
 10
238.784225
 20
-56.106796
  9
$LIMMAX
 10
499.587494
 20
197.914444
  9
$EXTMIN
 10
238.784225
 20
-56.106796
  9
$EXTMAX
 10
499.587494
 20
197.914444
  0
ENDSEC
  0
SECTION
  2
TABLES
  0
TABLE
  2
LTYPE
 70
     3
  0
LTYPE
  2
CONTINUOUS
 70
    64
  3
Ausgezogene Linie
 72
    65
 73
     0
 40
0.0
  0
LTYPE
  2
DASHED
 70
    64
  3
__ __ __ __ __ __ __ __ __ __ __ __ __ __ __
 72
    65
 73
     2
 40
0.75
 49
0.5
 49
-0.25
  0
LTYPE
  2
DASHDOT
 70
    64
  3
__ . __ . __ . __ . __ . __ . __ . __ . __ . __
 72
    65
 73
     4
 40
1.0
 49
0.5
 49
-0.25
 49
0.0
 49
-0.25
  0
ENDTAB
  0
TABLE
  2
LAYER
 70
     4
  0
LAYER
  2
LC-003-002-----0
 70
    64
 62
     7
  6
CONTINUOUS
  0
LAYER
  2
LC-004-006-----0
 70
    64
 62
     7
  6
CONTINUOUS
  0
LAYER
  2
LC-006-012-----0
 70
    64
 62
     7
  6
CONTINUOUS
  0
LAYER
  2
LC-008-003-----0
 70
    64
 62
     7
  6
CONTINUOUS
  0
ENDTAB
  0
TABLE
  2
STYLE
 70
     1
  0
STYLE
  2
TXT8
 70
    64
 40
0.0
 41
1.0
 50
0.0
 71
     0
 42
3.500000
  3
TXT8
  4

  0
ENDTAB
  0
ENDSEC
  0
SECTION
  2
BLOCKS
  0
ENDSEC
  0
SECTION
  2
ENTITIES
  0
LINE
  8
LC-003-002-----0
 62
     1
  6
CONTINUOUS
 10
241.934097
 20
188.554474
 11
241.934097
 21
134.554474
  0
LINE
  8
LC-003-002-----0
 62
     1
  6
CONTINUOUS
 10
241.934097
 20
134.554474
 11
327.934082
 21
134.554474
  0
LINE
  8
LC-003-002-----0
 62
     1
  6
CONTINUOUS
 10
273.276398
 20
194.554474
 11
247.934097
 21
194.554474
  0
LINE
  8
LC-003-002-----0
 62
     1
  6
CONTINUOUS
 10
327.934082
 20
188.554474
 11
327.934082
 21
134.554474
  0
LINE
  8
LC-004-006-----0
 62
     2
  6
DASHDOT
 10
284.934082
 20
197.914444
 11
284.934082
 21
129.303757
  0
LINE
  8
LC-004-006-----0
 62
     2
  6
DASHDOT
 10
257.692688
 20
169.554474
 11
311.039551
 21
169.554474
  0
CIRCLE
  8
LC-003-002-----0
 62
     1
  6
CONTINUOUS
 10
284.934082
 20
169.554474
 40
15.000000
  0
LINE
  8
LC-003-002-----0
 62
     1
  6
CONTINUOUS
 10
278.594818
 20
183.149094
 11
275.002563
 21
190.852707
  0
ARC
  8
LC-003-002-----0
 62
     1
  6
CONTINUOUS
 10
284.934082
 20
169.554474
 40
23.500000
 50
115.000004
 51
65.000001
  0
LINE
  8
LC-003-002-----0
 62
     1
  6
CONTINUOUS
 10
291.273376
 20
183.149094
 11
294.865631
 21
190.852707
  0
LINE
  8
LC-003-002-----0
 62
     1
  6
CONTINUOUS
 10
275.002563
 20
190.852707
 11
273.276398
 21
194.554474
  0
LINE
  8
LC-003-002-----0
 62
     1
  6
CONTINUOUS
 10
296.591797
 20
194.554474
 11
321.934082
 21
194.554474
  0
LINE
  8
LC-004-006-----0
 62
     2
  6
DASHDOT
 10
250.934097
 20
197.914444
 11
250.934097
 21
129.303757
  0
LINE
  8
LC-006-012-----0
 62
     2
  6
DASHED
 10
255.934097
 20
156.554474
 11
255.934097
 21
134.554474
  0
LINE
  8
LC-006-012-----0
 62
     2
  6
DASHED
 10
245.934097
 20
156.554474
 11
245.934097
 21
134.554474
  0
LINE
  8
LC-006-012-----0
 62
     2
  6
DASHED
 10
255.134094
 20
186.554474
 11
255.134094
 21
134.554474
  0
LINE
  8
LC-006-012-----0
 62
     2
  6
DASHED
 10
246.734100
 20
186.554474
 11
246.734100
 21
134.554474
  0
LINE
  8
LC-006-012-----0
 62
     2
  6
DASHED
 10
245.934097
 20
156.554474
 11
255.934097
 21
156.554474
  0
LINE
  8
LC-006-012-----0
 62
     2
  6
DASHED
 10
241.934097
 20
186.554474
 11
258.434082
 21
186.554474
  0
LINE
  8
LC-006-012-----0
 62
     2
  6
DASHED
 10
258.434082
 20
194.554474
 11
258.434082
 21
186.554474
  0
LINE
  8
LC-003-002-----0
 62
     1
  6
CONTINUOUS
 10
247.934097
 20
194.554474
 11
241.934097
 21
188.554474
  0
LINE
  8
LC-003-002-----0
 62
     1
  6
CONTINUOUS
 10
321.934082
 20
194.554474
 11
327.934082
 21
188.554474
  0
LINE
  8
LC-003-002-----0
 62
     1
  6
CONTINUOUS
 10
241.934097
 20
50.466843
 11
241.934097
 21
-28.533154
  0
LINE
  8
LC-004-006-----0
 62
     2
  6
DASHDOT
 10
318.934082
 20
197.914444
 11
318.934082
 21
129.303757
  0
LINE
  8
LC-006-012-----0
 62
     2
  6
DASHED
 10
313.934082
 20
156.554474
 11
313.934082
 21
134.554474
  0
LINE
  8
LC-006-012-----0
 62
     2
  6
DASHED
 10
323.934082
 20
156.554474
 11
323.934082
 21
134.554474
  0
LINE
  8
LC-006-012-----0
 62
     2
  6
DASHED
 10
314.734100
 20
186.554474
 11
314.734100
 21
134.554474
  0
LINE
  8
LC-006-012-----0
 62
     2
  6
DASHED
 10
323.134094
 20
186.554474
 11
323.134094
 21
134.554474
  0
LINE
  8
LC-006-012-----0
 62
     2
  6
DASHED
 10
323.934082
 20
156.554474
 11
313.934082
 21
156.554474
  0
LINE
  8
LC-006-012-----0
 62
     2
  6
DASHED
 10
327.934082
 20
186.554474
 11
311.434082
 21
186.554474
  0
LINE
  8
LC-006-012-----0
 62
     2
  6
DASHED
 10
311.434082
 20
194.554474
 11
311.434082
 21
186.554474
  0
LINE
  8
LC-006-012-----0
 62
     2
  6
DASHED
 10
315.734100
 20
174.054474
 11
327.934082
 21
174.054474
  0
LINE
  8
LC-006-012-----0
 62
     2
  6
DASHED
 10
315.234100
 20
169.554474
 11
309.734100
 21
169.554474
  0
LINE
  8
LC-006-012-----0
 62
     2
  6
DASHED
 10
315.234100
 20
165.554474
 11
309.734100
 21
165.554474
  0
LINE
  8
LC-006-012-----0
 62
     2
  6
DASHED
 10
309.984100
 20
170.054474
 11
315.234100
 21
170.054474
  0
LINE
  8
LC-006-012-----0
 62
     2
  6
DASHED
 10
315.234100
 20
165.054474
 11
309.984100
 21
165.054474
  0
LINE
  8
LC-006-012-----0
 62
     2
  6
DASHED
 10
317.734100
 20
165.004471
 11
317.734100
 21
170.104462
  0
LINE
  8
LC-006-012-----0
 62
     2
  6
DASHED
 10
306.634094
 20
166.054474
 11
306.634094
 21
169.054474
  0
LINE
  8
LC-006-012-----0
 62
     2
  6
DASHED
 10
309.734100
 20
169.804474
 11
309.984100
 21
170.054474
  0
LINE
  8
LC-006-012-----0
 62
     2
  6
DASHED
 10
309.984100
 20
165.054474
 11
309.734100
 21
165.304474
  0
LINE
  8
LC-006-012-----0
 62
     2
  6
DASHED
 10
309.984100
 20
165.054474
 11
309.984100
 21
170.054474
  0
LINE
  8
LC-006-012-----0
 62
     2
  6
DASHED
 10
315.734100
 20
161.054474
 11
315.734100
 21
174.054474
  0
LINE
  8
LC-006-012-----0
 62
     2
  6
DASHED
 10
317.587189
 20
170.854462
 11
315.734100
 21
170.854462
  0
LINE
  8
LC-006-012-----0
 62
     2
  6
DASHED
 10
317.587189
 20
164.254471
 11
315.734100
 21
164.254471
  0
LINE
  8
LC-006-012-----0
 62
     2
  6
DASHED
 10
317.587189
 20
169.354462
 11
315.734100
 21
169.354462
  0
LINE
  8
LC-006-012-----0
 62
     2
  6
DASHED
 10
317.587189
 20
165.754471
 11
315.734100
 21
165.754471
  0
LINE
  8
LC-006-012-----0
 62
     2
  6
DASHED
 10
309.734100
 20
165.304474
 11
309.734100
 21
169.804474
  0
ARC
  8
LC-006-012-----0
 62
     2
  6
DASHED
 10
306.634094
 20
167.554474
 40
11.100000
 50
350.667582
 51
9.332418
  0
ARC
  8
LC-006-012-----0
 62
     2
  6
DASHED
 10
315.734100
 20
165.004471
 40
1.999103
 50
337.965286
 51
22.034714
  0
LINE
  8
LC-006-012-----0
 62
     2
  6
DASHED
 10
309.734100
 20
169.304474
 11
306.884094
 21
169.304474
  0
ARC
  8
LC-006-012-----0
 62
     2
  6
DASHED
 10
315.734100
 20
170.104462
 40
1.999103
 50
337.965286
 51
22.034714
  0
LINE
  8
LC-006-012-----0
 62
     2
  6
DASHED
 10
315.234100
 20
165.054474
 11
315.234100
 21
170.054474
  0
LINE
  8
LC-006-012-----0
 62
     2
  6
DASHED
 10
315.734100
 20
169.754471
 11
315.234100
 21
169.754471
  0
LINE
  8
LC-006-012-----0
 62
     2
  6
DASHED
 10
315.734100
 20
165.354462
 11
315.234100
 21
165.354462
  0
LINE
  8
LC-006-012-----0
 62
     2
  6
DASHED
 10
309.734100
 20
165.804474
 11
306.884094
 21
165.804474
  0
ARC
  8
LC-006-012-----0
 62
     2
  6
DASHED
 10
306.884094
 20
169.054474
 40
0.250000
 50
90.000003
 51
180.000009
  0
ARC
  8
LC-006-012-----0
 62
     2
  6
DASHED
 10
306.884094
 20
166.054474
 40
0.250000
 50
180.000009
 51
269.999997
  0
LINE
  8
LC-006-012-----0
 62
     2
  6
DASHED
 10
315.734100
 20
161.054474
 11
327.934082
 21
161.054474
  0
LINE
  8
LC-003-002-----0
 62
     1
  6
CONTINUOUS
 10
241.934097
 20
-28.533155
 11
327.934082
 21
-28.533155
  0
LINE
  8
LC-003-002-----0
 62
     1
  6
CONTINUOUS
 10
327.934082
 20
50.466843
 11
327.934082
 21
-28.533154
  0
LINE
  8
LC-003-002-----0
 62
     1
  6
CONTINUOUS
 10
241.934097
 20
50.466843
 11
327.934082
 21
50.466843
  0
LINE
  8
LC-003-002-----0
 62
     1
  6
CONTINUOUS
 10
273.276398
 20
50.466843
 11
273.276398
 21
-28.533154
  0
LINE
  8
LC-003-002-----0
 62
     1
  6
CONTINUOUS
 10
275.002563
 20
50.466843
 11
275.002563
 21
-28.533154
  0
LINE
  8
LC-003-002-----0
 62
     1
  6
CONTINUOUS
 10
278.594818
 20
50.466843
 11
278.594818
 21
-28.533154
  0
LINE
  8
LC-006-012-----0
 62
     2
  6
DASHED
 10
315.734100
 20
17.466845
 11
327.934082
 21
17.466845
  0
LINE
  8
LC-006-012-----0
 62
     2
  6
DASHED
 10
315.234100
 20
12.966844
 11
309.734100
 21
12.966844
  0
LINE
  8
LC-006-012-----0
 62
     2
  6
DASHED
 10
315.234100
 20
8.966844
 11
309.734100
 21
8.966844
  0
LINE
  8
LC-006-012-----0
 62
     2
  6
DASHED
 10
309.984100
 20
13.466844
 11
315.234100
 21
13.466844
  0
LINE
  8
LC-006-012-----0
 62
     2
  6
DASHED
 10
315.234100
 20
8.466844
 11
309.984100
 21
8.466844
  0
LINE
  8
LC-006-012-----0
 62
     2
  6
DASHED
 10
317.734100
 20
8.416844
 11
317.734100
 21
13.516844
  0
LINE
  8
LC-006-012-----0
 62
     2
  6
DASHED
 10
306.634094
 20
9.466844
 11
306.634094
 21
12.466844
  0
LINE
  8
LC-006-012-----0
 62
     2
  6
DASHED
 10
309.734100
 20
13.216844
 11
309.984100
 21
13.466844
  0
LINE
  8
LC-006-012-----0
 62
     2
  6
DASHED
 10
309.984100
 20
8.466844
 11
309.734100
 21
8.716844
  0
LINE
  8
LC-006-012-----0
 62
     2
  6
DASHED
 10
309.984100
 20
8.466844
 11
309.984100
 21
13.466844
  0
LINE
  8
LC-006-012-----0
 62
     2
  6
DASHED
 10
315.734100
 20
4.466844
 11
315.734100
 21
17.466845
  0
LINE
  8
LC-006-012-----0
 62
     2
  6
DASHED
 10
317.587189
 20
14.266844
 11
315.734100
 21
14.266844
  0
LINE
  8
LC-006-012-----0
 62
     2
  6
DASHED
 10
317.587189
 20
7.666844
 11
315.734100
 21
7.666844
  0
LINE
  8
LC-006-012-----0
 62
     2
  6
DASHED
 10
317.587189
 20
12.766844
 11
315.734100
 21
12.766844
  0
LINE
  8
LC-006-012-----0
 62
     2
  6
DASHED
 10
317.587189
 20
9.166844
 11
315.734100
 21
9.166844
  0
LINE
  8
LC-006-012-----0
 62
     2
  6
DASHED
 10
309.734100
 20
8.716844
 11
309.734100
 21
13.216844
  0
ARC
  8
LC-006-012-----0
 62
     2
  6
DASHED
 10
306.634094
 20
10.966844
 40
11.100000
 50
350.667582
 51
9.332418
  0
ARC
  8
LC-006-012-----0
 62
     2
  6
DASHED
 10
315.734100
 20
8.416844
 40
1.999103
 50
337.965286
 51
22.034714
  0
LINE
  8
LC-006-012-----0
 62
     2
  6
DASHED
 10
309.734100
 20
12.716844
 11
306.884094
 21
12.716844
  0
ARC
  8
LC-006-012-----0
 62
     2
  6
DASHED
 10
315.734100
 20
13.516844
 40
1.999103
 50
337.965286
 51
22.034714
  0
LINE
  8
LC-006-012-----0
 62
     2
  6
DASHED
 10
315.234100
 20
8.466844
 11
315.234100
 21
13.466844
  0
LINE
  8
LC-006-012-----0
 62
     2
  6
DASHED
 10
315.734100
 20
13.166844
 11
315.234100
 21
13.166844
  0
LINE
  8
LC-006-012-----0
 62
     2
  6
DASHED
 10
315.734100
 20
8.766844
 11
315.234100
 21
8.766844
  0
LINE
  8
LC-006-012-----0
 62
     2
  6
DASHED
 10
309.734100
 20
9.216844
 11
306.884094
 21
9.216844
  0
ARC
  8
LC-006-012-----0
 62
     2
  6
DASHED
 10
306.884094
 20
12.466844
 40
0.250000
 50
90.000003
 51
180.000009
  0
ARC
  8
LC-006-012-----0
 62
     2
  6
DASHED
 10
306.884094
 20
9.466844
 40
0.250000
 50
180.000009
 51
269.999997
  0
LINE
  8
LC-006-012-----0
 62
     2
  6
DASHED
 10
315.734100
 20
4.466844
 11
327.934082
 21
4.466844
  0
LINE
  8
LC-004-006-----0
 62
     2
  6
DASHDOT
 10
303.822083
 20
10.966844
 11
332.190735
 21
10.966844
  0
LINE
  8
LC-004-006-----0
 62
     2
  6
DASHDOT
 10
238.784225
 20
33.466843
 11
261.138000
 21
33.466843
  0
LINE
  8
LC-004-006-----0
 62
     2
  6
DASHDOT
 10
250.934097
 20
43.875061
 11
250.934097
 21
22.374371
  0
ARC
  8
LC-003-002-----0
 62
     1
  6
CONTINUOUS
 10
250.934097
 20
33.466843
 40
7.500000
 50
269.999997
 51
90.000003
  0
ARC
  8
LC-008-003-----0
 62
     2
  6
CONTINUOUS
 10
250.934097
 20
33.466843
 40
5.000000
 50
171.902365
 51
100.990890
  0
CIRCLE
  8
LC-003-002-----0
 62
     1
  6
CONTINUOUS
 10
250.934097
 20
33.466843
 40
4.200000
  0
LINE
  8
LC-003-002-----0
 62
     1
  6
CONTINUOUS
 10
250.934097
 20
40.966843
 11
241.934097
 21
40.966843
  0
LINE
  8
LC-003-002-----0
 62
     1
  6
CONTINUOUS
 10
250.934097
 20
25.966845
 11
241.934097
 21
25.966845
  0
LINE
  8
LC-003-002-----0
 62
     1
  6
CONTINUOUS
 10
247.934097
 20
50.466843
 11
247.934097
 21
40.966843
  0
LINE
  8
LC-003-002-----0
 62
     1
  6
CONTINUOUS
 10
247.934097
 20
25.966845
 11
247.934097
 21
-4.033156
  0
LINE
  8
LC-004-006-----0
 62
     2
  6
DASHDOT
 10
238.784225
 20
-11.533156
 11
261.138000
 21
-11.533156
  0
LINE
  8
LC-004-006-----0
 62
     2
  6
DASHDOT
 10
250.934097
 20
-21.941374
 11
250.934097
 21
-0.440681
  0
ARC
  8
LC-003-002-----0
 62
     1
  6
CONTINUOUS
 10
250.934097
 20
-11.533156
 40
7.500000
 50
269.999997
 51
90.000003
  0
ARC
  8
LC-008-003-----0
 62
     2
  6
CONTINUOUS
 10
250.934097
 20
-11.533156
 40
5.000000
 50
259.009110
 51
188.097635
  0
CIRCLE
  8
LC-003-002-----0
 62
     1
  6
CONTINUOUS
 10
250.934097
 20
-11.533156
 40
4.200000
  0
LINE
  8
LC-003-002-----0
 62
     1
  6
CONTINUOUS
 10
250.934097
 20
-19.033155
 11
241.934097
 21
-19.033155
  0
LINE
  8
LC-003-002-----0
 62
     1
  6
CONTINUOUS
 10
250.934097
 20
-4.033156
 11
241.934097
 21
-4.033156
  0
LINE
  8
LC-003-002-----0
 62
     1
  6
CONTINUOUS
 10
247.934097
 20
-19.033155
 11
247.934097
 21
-28.533155
  0
LINE
  8
LC-003-002-----0
 62
     1
  6
CONTINUOUS
 10
296.591797
 20
50.466843
 11
296.591797
 21
-28.533154
  0
LINE
  8
LC-003-002-----0
 62
     1
  6
CONTINUOUS
 10
294.865631
 20
50.466843
 11
294.865631
 21
-28.533154
  0
LINE
  8
LC-003-002-----0
 62
     1
  6
CONTINUOUS
 10
291.273376
 20
50.466843
 11
291.273376
 21
-28.533154
  0
LINE
  8
LC-004-006-----0
 62
     2
  6
DASHDOT
 10
318.934082
 20
43.875061
 11
318.934082
 21
22.374371
  0
ARC
  8
LC-003-002-----0
 62
     1
  6
CONTINUOUS
 10
318.934082
 20
33.466843
 40
7.500000
 50
90.000003
 51
269.999997
  0
ARC
  8
LC-008-003-----0
 62
     2
  6
CONTINUOUS
 10
318.934082
 20
33.466843
 40
5.000000
 50
79.009108
 51
8.097636
  0
CIRCLE
  8
LC-003-002-----0
 62
     1
  6
CONTINUOUS
 10
318.934082
 20
33.466843
 40
4.200000
  0
LINE
  8
LC-003-002-----0
 62
     1
  6
CONTINUOUS
 10
321.934082
 20
50.466843
 11
321.934082
 21
40.966843
  0
LINE
  8
LC-003-002-----0
 62
     1
  6
CONTINUOUS
 10
321.934082
 20
25.966845
 11
321.934082
 21
-4.033156
  0
LINE
  8
LC-004-006-----0
 62
     2
  6
DASHDOT
 10
318.934082
 20
-21.941374
 11
318.934082
 21
-0.440681
  0
ARC
  8
LC-003-002-----0
 62
     1
  6
CONTINUOUS
 10
318.934082
 20
-11.533156
 40
7.500000
 50
90.000003
 51
269.999997
  0
ARC
  8
LC-008-003-----0
 62
     2
  6
CONTINUOUS
 10
318.934082
 20
-11.533156
 40
5.000000
 50
351.902364
 51
280.990892
  0
CIRCLE
  8
LC-003-002-----0
 62
     1
  6
CONTINUOUS
 10
318.934082
 20
-11.533156
 40
4.200000
  0
LINE
  8
LC-003-002-----0
 62
     1
  6
CONTINUOUS
 10
321.934082
 20
-19.033155
 11
321.934082
 21
-28.533155
  0
LINE
  8
LC-003-002-----0
 62
     1
  6
CONTINUOUS
 10
318.934082
 20
-4.033156
 11
327.934082
 21
-4.033156
  0
LINE
  8
LC-003-002-----0
 62
     1
  6
CONTINUOUS
 10
318.934082
 20
-19.033155
 11
327.934082
 21
-19.033155
  0
LINE
  8
LC-003-002-----0
 62
     1
  6
CONTINUOUS
 10
318.934082
 20
25.966845
 11
327.934082
 21
25.966845
  0
LINE
  8
LC-003-002-----0
 62
     1
  6
CONTINUOUS
 10
318.934082
 20
40.966843
 11
327.934082
 21
40.966843
  0
LINE
  8
LC-004-006-----0
 62
     2
  6
DASHDOT
 10
331.083954
 20
33.466843
 11
308.730194
 21
33.466843
  0
LINE
  8
LC-004-006-----0
 62
     2
  6
DASHDOT
 10
331.083954
 20
-11.533156
 11
308.730194
 21
-11.533156
  0
LINE
  8
LC-006-012-----0
 62
     2
  6
DASHED
 10
261.434082
 20
50.466843
 11
261.434082
 21
-28.533154
  0
LINE
  8
LC-006-012-----0
 62
     2
  6
DASHED
 10
308.434082
 20
50.466843
 11
308.434082
 21
-28.533154
  0
LINE
  8
LC-004-006-----0
 62
     2
  6
DASHDOT
 10
284.934082
 20
74.721001
 11
284.934082
 21
-56.106796
  0
LINE
  8
LC-003-002-----0
 62
     1
  6
CONTINUOUS
 10
269.934082
 20
69.334885
 11
269.934082
 21
50.466843
  0
LINE
  8
LC-008-003-----0
 62
     2
  6
CONTINUOUS
 10
269.934082
 20
-51.289223
 11
279.077637
 21
-50.219513
  0
LINE
  8
LC-008-003-----0
 62
     2
  6
CONTINUOUS
 10
279.077637
 20
-50.219513
 11
292.353943
 21
-52.185673
  0
LINE
  8
LC-008-003-----0
 62
     2
  6
CONTINUOUS
 10
292.353943
 20
-52.185673
 11
299.934082
 21
-51.630051
  0
LINE
  8
LC-008-003-----0
 62
     2
  6
CONTINUOUS
 10
269.934082
 20
69.334885
 11
278.840546
 21
70.431198
  0
LINE
  8
LC-008-003-----0
 62
     2
  6
CONTINUOUS
 10
278.840546
 20
70.431198
 11
294.250549
 21
68.286301
  0
LINE
  8
LC-008-003-----0
 62
     2
  6
CONTINUOUS
 10
294.250549
 20
68.286301
 11
299.934082
 21
68.770096
  0
LINE
  8
LC-006-012-----0
 62
     2
  6
DASHED
 10
269.934082
 20
50.466843
 11
269.934082
 21
-28.533154
  0
LINE
  8
LC-003-002-----0
 62
     1
  6
CONTINUOUS
 10
299.934082
 20
68.770096
 11
299.934082
 21
50.466843
  0
LINE
  8
LC-006-012-----0
 62
     2
  6
DASHED
 10
299.934082
 20
50.466843
 11
299.934082
 21
-28.533154
  0
LINE
  8
LC-003-002-----0
 62
     1
  6
CONTINUOUS
 10
299.934082
 20
-28.533155
 11
299.934082
 21
-51.630051
  0
LINE
  8
LC-003-002-----0
 62
     1
  6
CONTINUOUS
 10
269.934082
 20
-28.533155
 11
269.934082
 21
-51.289223
  0
LINE
  8
LC-003-002-----0
 62
     1
  6
CONTINUOUS
 10
396.602844
 20
134.554474
 11
475.602844
 21
134.554474
  0
LINE
  8
LC-003-002-----0
 62
     1
  6
CONTINUOUS
 10
475.602844
 20
134.554474
 11
475.602844
 21
194.554474
  0
LINE
  8
LC-003-002-----0
 62
     1
  6
CONTINUOUS
 10
396.602844
 20
194.554474
 11
475.602844
 21
194.554474
  0
LINE
  8
LC-003-002-----0
 62
     1
  6
CONTINUOUS
 10
396.602844
 20
134.554474
 11
396.602844
 21
194.554474
  0
LINE
  8
LC-003-002-----0
 62
     1
  6
CONTINUOUS
 10
396.602844
 20
188.554474
 11
406.102844
 21
188.554474
  0
LINE
  8
LC-003-002-----0
 62
     1
  6
CONTINUOUS
 10
421.102844
 20
194.554474
 11
421.102844
 21
186.554474
  0
LINE
  8
LC-004-006-----0
 62
     2
  6
DASHDOT
 10
413.602844
 20
197.914444
 11
413.602844
 21
129.303757
  0
LINE
  8
LC-006-012-----0
 62
     2
  6
DASHED
 10
408.602844
 20
156.554474
 11
408.602844
 21
134.554474
  0
LINE
  8
LC-006-012-----0
 62
     2
  6
DASHED
 10
418.602844
 20
156.554474
 11
418.602844
 21
134.554474
  0
LINE
  8
LC-006-012-----0
 62
     2
  6
DASHED
 10
409.402863
 20
186.554474
 11
409.402863
 21
134.554474
  0
LINE
  8
LC-006-012-----0
 62
     2
  6
DASHED
 10
417.802856
 20
186.554474
 11
417.802856
 21
134.554474
  0
LINE
  8
LC-006-012-----0
 62
     2
  6
DASHED
 10
418.602844
 20
156.554474
 11
408.602844
 21
156.554474
  0
LINE
  8
LC-003-002-----0
 62
     1
  6
CONTINUOUS
 10
421.102844
 20
186.554474
 11
406.102844
 21
186.554474
  0
LINE
  8
LC-003-002-----0
 62
     1
  6
CONTINUOUS
 10
406.102844
 20
194.554474
 11
406.102844
 21
186.554474
  0
LINE
  8
LC-003-002-----0
 62
     1
  6
CONTINUOUS
 10
421.102844
 20
188.554474
 11
451.102844
 21
188.554474
  0
LINE
  8
LC-004-006-----0
 62
     2
  6
DASHDOT
 10
436.102844
 20
177.112671
 11
436.102844
 21
158.138779
  0
LINE
  8
LC-004-006-----0
 62
     2
  6
DASHDOT
 10
368.721771
 20
169.554474
 11
499.587494
 21
169.554474
  0
CIRCLE
  8
LC-006-012-----0
 62
     2
  6
DASHED
 10
436.102844
 20
167.554474
 40
6.500000
  0
LINE
  8
LC-006-012-----0
 62
     2
  6
DASHED
 10
433.242859
 20
169.205688
 11
436.102844
 21
170.856918
  0
LINE
  8
LC-006-012-----0
 62
     2
  6
DASHED
 10
436.102844
 20
164.252029
 11
438.962860
 21
165.903244
  0
LINE
  8
LC-006-012-----0
 62
     2
  6
DASHED
 10
433.242859
 20
165.903244
 11
433.242859
 21
169.205688
  0
LINE
  8
LC-006-012-----0
 62
     2
  6
DASHED
 10
438.962860
 20
165.903244
 11
438.962860
 21
169.205688
  0
LINE
  8
LC-006-012-----0
 62
     2
  6
DASHED
 10
436.102844
 20
164.252029
 11
433.242859
 21
165.903244
  0
LINE
  8
LC-006-012-----0
 62
     2
  6
DASHED
 10
438.962860
 20
169.205688
 11
436.102844
 21
170.856918
  0
CIRCLE
  8
LC-006-012-----0
 62
     2
  6
DASHED
 10
436.102844
 20
167.554474
 40
2.860000
  0
LINE
  8
LC-003-002-----0
 62
     1
  6
CONTINUOUS
 10
451.102844
 20
194.554474
 11
451.102844
 21
186.554474
  0
LINE
  8
LC-006-012-----0
 62
     2
  6
DASHED
 10
463.602844
 20
156.554474
 11
463.602844
 21
134.554474
  0
LINE
  8
LC-006-012-----0
 62
     2
  6
DASHED
 10
453.602844
 20
156.554474
 11
453.602844
 21
134.554474
  0
LINE
  8
LC-006-012-----0
 62
     2
  6
DASHED
 10
462.802856
 20
186.554474
 11
462.802856
 21
134.554474
  0
LINE
  8
LC-006-012-----0
 62
     2
  6
DASHED
 10
454.402863
 20
186.554474
 11
454.402863
 21
134.554474
  0
LINE
  8
LC-006-012-----0
 62
     2
  6
DASHED
 10
453.602844
 20
156.554474
 11
463.602844
 21
156.554474
  0
LINE
  8
LC-003-002-----0
 62
     1
  6
CONTINUOUS
 10
451.102844
 20
186.554474
 11
466.102844
 21
186.554474
  0
LINE
  8
LC-003-002-----0
 62
     1
  6
CONTINUOUS
 10
466.102844
 20
194.554474
 11
466.102844
 21
186.554474
  0
LINE
  8
LC-008-003-----0
 62
     2
  6
CONTINUOUS
 10
496.112549
 20
154.554474
 11
494.913727
 21
163.592865
  0
LINE
  8
LC-004-006-----0
 62
     2
  6
DASHDOT
 10
458.602844
 20
197.914444
 11
458.602844
 21
129.303757
  0
LINE
  8
LC-003-002-----0
 62
     1
  6
CONTINUOUS
 10
466.102844
 20
188.554474
 11
475.602844
 21
188.554474
  0
LINE
  8
LC-006-012-----0
 62
     2
  6
DASHED
 10
396.602844
 20
146.054474
 11
475.602844
 21
146.054474
  0
LINE
  8
LC-006-012-----0
 62
     2
  6
DASHED
 10
396.602844
 20
183.149094
 11
475.602844
 21
183.149094
  0
LINE
  8
LC-006-012-----0
 62
     2
  6
DASHED
 10
396.602844
 20
190.852707
 11
475.602844
 21
190.852707
  0
LINE
  8
LC-008-003-----0
 62
     2
  6
CONTINUOUS
 10
494.913727
 20
163.592865
 11
494.913727
 21
176.603622
  0
LINE
  8
LC-008-003-----0
 62
     2
  6
CONTINUOUS
 10
494.913727
 20
176.603622
 11
494.034912
 21
184.554474
  0
LINE
  8
LC-008-003-----0
 62
     2
  6
CONTINUOUS
 10
374.983704
 20
154.554474
 11
375.912201
 21
162.779694
  0
LINE
  8
LC-008-003-----0
 62
     2
  6
CONTINUOUS
 10
375.912201
 20
162.779694
 11
374.833618
 21
177.958908
  0
LINE
  8
LC-008-003-----0
 62
     2
  6
CONTINUOUS
 10
374.833618
 20
177.958908
 11
375.319641
 21
184.554474
  0
LINE
  8
LC-003-002-----0
 62
     1
  6
CONTINUOUS
 10
375.319641
 20
184.554474
 11
396.602844
 21
184.554474
  0
LINE
  8
LC-006-012-----0
 62
     2
  6
DASHED
 10
396.602844
 20
184.554474
 11
475.602844
 21
184.554474
  0
LINE
  8
LC-003-002-----0
 62
     1
  6
CONTINUOUS
 10
374.983704
 20
154.554474
 11
396.602844
 21
154.554474
  0
LINE
  8
LC-006-012-----0
 62
     2
  6
DASHED
 10
396.602844
 20
154.554474
 11
475.602844
 21
154.554474
  0
LINE
  8
LC-003-002-----0
 62
     1
  6
CONTINUOUS
 10
475.602844
 20
154.554474
 11
496.112549
 21
154.554474
  0
LINE
  8
LC-003-002-----0
 62
     1
  6
CONTINUOUS
 10
475.602844
 20
184.554474
 11
494.034912
 21
184.554474
  0
LINE
  8
LC-004-006-----0
 62
     2
  6
DASHDOT
 10
305.267120
 20
167.554474
 11
330.581177
 21
167.554474
  0
LINE
  8
LC-004-006-----0
 62
     2
  6
DASHDOT
 10
427.695099
 20
167.554474
 11
444.952118
 21
167.554474
  0
LINE
  8
LC-003-002-----0
 62
     1
  6
CONTINUOUS
 10
294.865631
 20
190.852707
 11
296.591797
 21
194.554474
  0
ARC
  8
LC-003-002-----0
 62
     1
  6
CONTINUOUS
 10
284.934082
 20
169.554474
 40
20.000000
 50
115.000004
 51
65.000001
  0
ENDSEC
  0
EOF
