  0
SECTION
  2
HEADER
  9
$LIMMIN
 10
633.916626
 20
-86.756592
  9
$LIMMAX
 10
979.219360
 20
241.593170
  9
$EXTMIN
 10
633.916626
 20
-86.756592
  9
$EXTMAX
 10
979.219360
 20
241.593170
  0
ENDSEC
  0
SECTION
  2
TABLES
  0
TABLE
  2
LTYPE
 70
     3
  0
LTYPE
  2
CONTINUOUS
 70
    64
  3
Ausgezogene Linie
 72
    65
 73
     0
 40
0.0
  0
LTYPE
  2
DASHED
 70
    64
  3
__ __ __ __ __ __ __ __ __ __ __ __ __ __ __
 72
    65
 73
     2
 40
0.75
 49
0.5
 49
-0.25
  0
LTYPE
  2
DASHDOT
 70
    64
  3
__ . __ . __ . __ . __ . __ . __ . __ . __ . __
 72
    65
 73
     4
 40
1.0
 49
0.5
 49
-0.25
 49
0.0
 49
-0.25
  0
ENDTAB
  0
TABLE
  2
LAYER
 70
     4
  0
LAYER
  2
LC-003-002-----0
 70
    64
 62
     7
  6
CONTINUOUS
  0
LAYER
  2
LC-004-006-----0
 70
    64
 62
     7
  6
CONTINUOUS
  0
LAYER
  2
LC-006-012-----0
 70
    64
 62
     7
  6
CONTINUOUS
  0
LAYER
  2
LC-008-003-----0
 70
    64
 62
     7
  6
CONTINUOUS
  0
ENDTAB
  0
TABLE
  2
STYLE
 70
     1
  0
STYLE
  2
TXT8
 70
    64
 40
0.0
 41
1.0
 50
0.0
 71
     0
 42
3.500000
  3
TXT8
  4

  0
ENDTAB
  0
ENDSEC
  0
SECTION
  2
BLOCKS
  0
ENDSEC
  0
SECTION
  2
ENTITIES
  0
LINE
  8
LC-004-006-----0
 62
     2
  6
DASHDOT
 10
770.454773
 20
194.823547
 11
733.567139
 21
194.823547
  0
LINE
  8
LC-006-012-----0
 62
     2
  6
DASHED
 10
739.664978
 20
191.823547
 11
746.914978
 21
191.823547
  0
LINE
  8
LC-006-012-----0
 62
     2
  6
DASHED
 10
739.664978
 20
197.823547
 11
746.914978
 21
197.823547
  0
LINE
  8
LC-006-012-----0
 62
     2
  6
DASHED
 10
746.914978
 20
192.323547
 11
739.414978
 21
192.323547
  0
LINE
  8
LC-006-012-----0
 62
     2
  6
DASHED
 10
746.914978
 20
197.323547
 11
739.414978
 21
197.323547
  0
LINE
  8
LC-006-012-----0
 62
     2
  6
DASHED
 10
749.914978
 20
191.623550
 11
749.914978
 21
197.894943
  0
LINE
  8
LC-006-012-----0
 62
     2
  6
DASHED
 10
747.414978
 20
187.323547
 11
747.414978
 21
202.323547
  0
LINE
  8
LC-006-012-----0
 62
     2
  6
DASHED
 10
735.114990
 20
192.823547
 11
735.114990
 21
196.823547
  0
LINE
  8
LC-006-012-----0
 62
     2
  6
DASHED
 10
749.702332
 20
190.923553
 11
747.414978
 21
190.923553
  0
LINE
  8
LC-006-012-----0
 62
     2
  6
DASHED
 10
749.702332
 20
198.723557
 11
747.414978
 21
198.723557
  0
LINE
  8
LC-006-012-----0
 62
     2
  6
DASHED
 10
739.414978
 20
192.073547
 11
739.414978
 21
197.573547
  0
LINE
  8
LC-006-012-----0
 62
     2
  6
DASHED
 10
739.414978
 20
192.073547
 11
739.664978
 21
191.823547
  0
LINE
  8
LC-006-012-----0
 62
     2
  6
DASHED
 10
739.414978
 20
197.573547
 11
739.664978
 21
197.823547
  0
LINE
  8
LC-006-012-----0
 62
     2
  6
DASHED
 10
739.664978
 20
191.823547
 11
739.664978
 21
197.823547
  0
LINE
  8
LC-006-012-----0
 62
     2
  6
DASHED
 10
739.414978
 20
192.573547
 11
735.364990
 21
192.573547
  0
LINE
  8
LC-006-012-----0
 62
     2
  6
DASHED
 10
739.414978
 20
197.073547
 11
735.364990
 21
197.073547
  0
ARC
  8
LC-006-012-----0
 62
     2
  6
DASHED
 10
735.364990
 20
192.823547
 40
0.250000
 50
180.000009
 51
269.999997
  0
ARC
  8
LC-006-012-----0
 62
     2
  6
DASHED
 10
735.364990
 20
196.823547
 40
0.250000
 50
90.000003
 51
180.000009
  0
LINE
  8
LC-006-012-----0
 62
     2
  6
DASHED
 10
746.914978
 20
191.823547
 11
746.914978
 21
197.823547
  0
LINE
  8
LC-006-012-----0
 62
     2
  6
DASHED
 10
746.914978
 20
192.573547
 11
747.414978
 21
192.573547
  0
LINE
  8
LC-006-012-----0
 62
     2
  6
DASHED
 10
746.914978
 20
197.073547
 11
747.414978
 21
197.073547
  0
LINE
  8
LC-006-012-----0
 62
     2
  6
DASHED
 10
747.414978
 20
192.323547
 11
749.702332
 21
192.323547
  0
LINE
  8
LC-006-012-----0
 62
     2
  6
DASHED
 10
747.414978
 20
197.323547
 11
749.702332
 21
197.323547
  0
ARC
  8
LC-006-012-----0
 62
     2
  6
DASHED
 10
735.114990
 20
194.823547
 40
14.800000
 50
350.275031
 51
9.724969
  0
ARC
  8
LC-006-012-----0
 62
     2
  6
DASHED
 10
748.695557
 20
198.023560
 40
1.226194
 50
325.188944
 51
34.811056
  0
ARC
  8
LC-006-012-----0
 62
     2
  6
DASHED
 10
748.695557
 20
191.623550
 40
1.226194
 50
325.188944
 51
34.811056
  0
LINE
  8
LC-006-012-----0
 62
     2
  6
DASHED
 10
766.414978
 20
187.323547
 11
747.414978
 21
187.323547
  0
LINE
  8
LC-006-012-----0
 62
     2
  6
DASHED
 10
766.414978
 20
202.323547
 11
747.414978
 21
202.323547
  0
LINE
  8
LC-003-002-----0
 62
     1
  6
CONTINUOUS
 10
636.414978
 20
65.236771
 11
636.414978
 21
-47.763229
  0
LINE
  8
LC-003-002-----0
 62
     1
  6
CONTINUOUS
 10
636.414978
 20
-47.763229
 11
766.414978
 21
-47.763229
  0
LINE
  8
LC-003-002-----0
 62
     1
  6
CONTINUOUS
 10
766.414978
 20
65.236771
 11
766.414978
 21
-47.763229
  0
LINE
  8
LC-003-002-----0
 62
     1
  6
CONTINUOUS
 10
636.414978
 20
65.236771
 11
766.414978
 21
65.236771
  0
LINE
  8
LC-003-002-----0
 62
     1
  6
CONTINUOUS
 10
636.414978
 20
225.323547
 11
646.414978
 21
235.323547
  0
LINE
  8
LC-003-002-----0
 62
     1
  6
CONTINUOUS
 10
636.414978
 20
147.323547
 11
636.414978
 21
225.323547
  0
LINE
  8
LC-003-002-----0
 62
     1
  6
CONTINUOUS
 10
636.414978
 20
147.323547
 11
766.414978
 21
147.323547
  0
LINE
  8
LC-003-002-----0
 62
     1
  6
CONTINUOUS
 10
646.414978
 20
235.323547
 11
683.695313
 21
235.323547
  0
LINE
  8
LC-003-002-----0
 62
     1
  6
CONTINUOUS
 10
766.414978
 20
147.323547
 11
766.414978
 21
225.323547
  0
LINE
  8
LC-004-006-----0
 62
     2
  6
DASHDOT
 10
701.414978
 20
141.239944
 11
701.414978
 21
241.593170
  0
LINE
  8
LC-004-006-----0
 62
     2
  6
DASHDOT
 10
658.728577
 20
197.323547
 11
744.549500
 21
197.323547
  0
CIRCLE
  8
LC-003-002-----0
 62
     1
  6
CONTINUOUS
 10
701.414978
 20
197.323547
 40
25.000000
  0
LINE
  8
LC-003-002-----0
 62
     1
  6
CONTINUOUS
 10
839.263062
 20
225.323547
 11
860.763062
 21
225.323547
  0
LINE
  8
LC-003-002-----0
 62
     1
  6
CONTINUOUS
 10
930.763062
 20
223.323547
 11
930.763062
 21
235.323547
  0
LINE
  8
LC-003-002-----0
 62
     1
  6
CONTINUOUS
 10
711.980469
 20
219.981247
 11
717.263184
 21
231.310089
  0
LINE
  8
LC-004-006-----0
 62
     2
  6
DASHDOT
 10
647.414978
 20
141.239944
 11
647.414978
 21
241.593170
  0
LINE
  8
LC-003-002-----0
 62
     1
  6
CONTINUOUS
 10
690.849548
 20
219.981247
 11
685.566833
 21
231.310089
  0
LINE
  8
LC-003-002-----0
 62
     1
  6
CONTINUOUS
 10
756.414978
 20
235.323547
 11
719.134705
 21
235.323547
  0
ARC
  8
LC-003-002-----0
 62
     1
  6
CONTINUOUS
 10
701.414978
 20
197.323547
 40
37.500000
 50
115.000004
 51
65.000001
  0
ARC
  8
LC-003-002-----0
 62
     1
  6
CONTINUOUS
 10
701.414978
 20
197.323547
 40
32.000000
 50
115.000004
 51
65.000001
  0
LINE
  8
LC-006-012-----0
 62
     2
  6
DASHED
 10
655.414978
 20
147.323547
 11
655.414978
 21
181.323547
  0
LINE
  8
LC-006-012-----0
 62
     2
  6
DASHED
 10
639.414978
 20
147.323547
 11
639.414978
 21
181.323547
  0
LINE
  8
LC-006-012-----0
 62
     2
  6
DASHED
 10
654.164978
 20
147.323547
 11
654.164978
 21
223.323547
  0
LINE
  8
LC-006-012-----0
 62
     2
  6
DASHED
 10
640.664978
 20
147.323547
 11
640.664978
 21
223.323547
  0
LINE
  8
LC-006-012-----0
 62
     2
  6
DASHED
 10
639.414978
 20
181.323547
 11
655.414978
 21
181.323547
  0
LINE
  8
LC-006-012-----0
 62
     2
  6
DASHED
 10
636.414978
 20
223.323547
 11
657.414978
 21
223.323547
  0
LINE
  8
LC-006-012-----0
 62
     2
  6
DASHED
 10
657.414978
 20
223.323547
 11
657.414978
 21
235.323547
  0
LINE
  8
LC-004-006-----0
 62
     2
  6
DASHDOT
 10
755.414978
 20
141.239944
 11
755.414978
 21
241.593170
  0
LINE
  8
LC-006-012-----0
 62
     2
  6
DASHED
 10
747.414978
 20
147.323547
 11
747.414978
 21
181.323547
  0
LINE
  8
LC-006-012-----0
 62
     2
  6
DASHED
 10
763.414978
 20
147.323547
 11
763.414978
 21
181.323547
  0
LINE
  8
LC-006-012-----0
 62
     2
  6
DASHED
 10
748.664978
 20
147.323547
 11
748.664978
 21
223.323547
  0
LINE
  8
LC-006-012-----0
 62
     2
  6
DASHED
 10
762.164978
 20
147.323547
 11
762.164978
 21
223.323547
  0
LINE
  8
LC-006-012-----0
 62
     2
  6
DASHED
 10
763.414978
 20
181.323547
 11
747.414978
 21
181.323547
  0
LINE
  8
LC-006-012-----0
 62
     2
  6
DASHED
 10
766.414978
 20
223.323547
 11
745.414978
 21
223.323547
  0
LINE
  8
LC-006-012-----0
 62
     2
  6
DASHED
 10
745.414978
 20
223.323547
 11
745.414978
 21
235.323547
  0
LINE
  8
LC-003-002-----0
 62
     1
  6
CONTINUOUS
 10
766.414978
 20
225.323547
 11
756.414978
 21
235.323547
  0
LINE
  8
LC-003-002-----0
 62
     1
  6
CONTINUOUS
 10
646.414978
 20
65.236771
 11
646.414978
 21
43.736771
  0
LINE
  8
LC-004-006-----0
 62
     2
  6
DASHDOT
 10
770.454773
 20
8.736772
 11
733.567139
 21
8.736772
  0
LINE
  8
LC-006-012-----0
 62
     2
  6
DASHED
 10
739.664978
 20
11.736772
 11
746.914978
 21
11.736772
  0
LINE
  8
LC-006-012-----0
 62
     2
  6
DASHED
 10
739.664978
 20
5.736772
 11
746.914978
 21
5.736772
  0
LINE
  8
LC-006-012-----0
 62
     2
  6
DASHED
 10
746.914978
 20
11.236772
 11
739.414978
 21
11.236772
  0
LINE
  8
LC-006-012-----0
 62
     2
  6
DASHED
 10
746.914978
 20
6.236772
 11
739.414978
 21
6.236772
  0
LINE
  8
LC-006-012-----0
 62
     2
  6
DASHED
 10
749.914978
 20
11.936772
 11
749.914978
 21
5.665390
  0
LINE
  8
LC-006-012-----0
 62
     2
  6
DASHED
 10
747.414978
 20
16.236773
 11
747.414978
 21
1.236771
  0
LINE
  8
LC-006-012-----0
 62
     2
  6
DASHED
 10
735.114990
 20
10.736772
 11
735.114990
 21
6.736773
  0
LINE
  8
LC-006-012-----0
 62
     2
  6
DASHED
 10
749.702332
 20
12.636772
 11
747.414978
 21
12.636772
  0
LINE
  8
LC-006-012-----0
 62
     2
  6
DASHED
 10
749.702332
 20
4.836772
 11
747.414978
 21
4.836772
  0
LINE
  8
LC-006-012-----0
 62
     2
  6
DASHED
 10
739.414978
 20
11.486772
 11
739.414978
 21
5.986773
  0
LINE
  8
LC-006-012-----0
 62
     2
  6
DASHED
 10
739.414978
 20
11.486772
 11
739.664978
 21
11.736772
  0
LINE
  8
LC-006-012-----0
 62
     2
  6
DASHED
 10
739.414978
 20
5.986772
 11
739.664978
 21
5.736772
  0
LINE
  8
LC-006-012-----0
 62
     2
  6
DASHED
 10
739.664978
 20
11.736772
 11
739.664978
 21
5.736773
  0
LINE
  8
LC-006-012-----0
 62
     2
  6
DASHED
 10
739.414978
 20
10.986772
 11
735.364990
 21
10.986772
  0
LINE
  8
LC-006-012-----0
 62
     2
  6
DASHED
 10
739.414978
 20
6.486772
 11
735.364990
 21
6.486772
  0
ARC
  8
LC-006-012-----0
 62
     2
  6
DASHED
 10
735.364990
 20
10.736772
 40
0.250000
 50
90.000003
 51
180.000009
  0
ARC
  8
LC-006-012-----0
 62
     2
  6
DASHED
 10
735.364990
 20
6.736772
 40
0.250000
 50
180.000009
 51
269.999997
  0
LINE
  8
LC-006-012-----0
 62
     2
  6
DASHED
 10
746.914978
 20
11.736772
 11
746.914978
 21
5.736773
  0
LINE
  8
LC-006-012-----0
 62
     2
  6
DASHED
 10
746.914978
 20
10.986772
 11
747.414978
 21
10.986772
  0
LINE
  8
LC-006-012-----0
 62
     2
  6
DASHED
 10
746.914978
 20
6.486772
 11
747.414978
 21
6.486772
  0
LINE
  8
LC-006-012-----0
 62
     2
  6
DASHED
 10
747.414978
 20
11.236772
 11
749.702332
 21
11.236772
  0
LINE
  8
LC-006-012-----0
 62
     2
  6
DASHED
 10
747.414978
 20
6.236772
 11
749.702332
 21
6.236772
  0
ARC
  8
LC-006-012-----0
 62
     2
  6
DASHED
 10
735.114990
 20
8.736772
 40
14.800000
 50
350.275031
 51
9.724969
  0
ARC
  8
LC-006-012-----0
 62
     2
  6
DASHED
 10
748.695557
 20
5.536772
 40
1.226194
 50
325.188944
 51
34.811056
  0
ARC
  8
LC-006-012-----0
 62
     2
  6
DASHED
 10
748.695557
 20
11.936772
 40
1.226194
 50
325.188944
 51
34.811056
  0
LINE
  8
LC-006-012-----0
 62
     2
  6
DASHED
 10
766.414978
 20
16.236773
 11
747.414978
 21
16.236773
  0
LINE
  8
LC-006-012-----0
 62
     2
  6
DASHED
 10
766.414978
 20
1.236772
 11
747.414978
 21
1.236772
  0
LINE
  8
LC-004-006-----0
 62
     2
  6
DASHDOT
 10
661.466003
 20
33.736771
 11
633.916626
 21
33.736771
  0
LINE
  8
LC-004-006-----0
 62
     2
  6
DASHDOT
 10
647.414978
 20
48.233414
 11
647.414978
 21
19.431566
  0
ARC
  8
LC-003-002-----0
 62
     1
  6
CONTINUOUS
 10
647.414978
 20
33.736771
 40
10.000000
 50
269.999997
 51
90.000003
  0
CIRCLE
  8
LC-003-002-----0
 62
     1
  6
CONTINUOUS
 10
647.414978
 20
33.736771
 40
6.750000
  0
ARC
  8
LC-008-003-----0
 62
     2
  6
CONTINUOUS
 10
647.414978
 20
33.736771
 40
8.000000
 50
84.067116
 51
7.547347
  0
LINE
  8
LC-003-002-----0
 62
     1
  6
CONTINUOUS
 10
646.414978
 20
23.736773
 11
646.414978
 21
-6.263228
  0
LINE
  8
LC-003-002-----0
 62
     1
  6
CONTINUOUS
 10
647.414978
 20
43.736771
 11
636.414978
 21
43.736771
  0
LINE
  8
LC-003-002-----0
 62
     1
  6
CONTINUOUS
 10
647.414978
 20
23.736773
 11
636.414978
 21
23.736773
  0
LINE
  8
LC-004-006-----0
 62
     2
  6
DASHDOT
 10
661.466003
 20
-16.263227
 11
633.916626
 21
-16.263227
  0
LINE
  8
LC-004-006-----0
 62
     2
  6
DASHDOT
 10
647.414978
 20
-30.759871
 11
647.414978
 21
-1.958022
  0
ARC
  8
LC-003-002-----0
 62
     1
  6
CONTINUOUS
 10
647.414978
 20
-16.263227
 40
10.000000
 50
269.999997
 51
90.000003
  0
CIRCLE
  8
LC-003-002-----0
 62
     1
  6
CONTINUOUS
 10
647.414978
 20
-16.263227
 40
6.750000
  0
ARC
  8
LC-008-003-----0
 62
     2
  6
CONTINUOUS
 10
647.414978
 20
-16.263227
 40
8.000000
 50
352.452653
 51
275.932884
  0
LINE
  8
LC-003-002-----0
 62
     1
  6
CONTINUOUS
 10
647.414978
 20
-26.263227
 11
636.414978
 21
-26.263227
  0
LINE
  8
LC-003-002-----0
 62
     1
  6
CONTINUOUS
 10
647.414978
 20
-6.263228
 11
636.414978
 21
-6.263228
  0
LINE
  8
LC-003-002-----0
 62
     1
  6
CONTINUOUS
 10
646.414978
 20
-26.263227
 11
646.414978
 21
-47.763229
  0
LINE
  8
LC-003-002-----0
 62
     1
  6
CONTINUOUS
 10
756.414978
 20
65.236771
 11
756.414978
 21
43.736771
  0
LINE
  8
LC-004-006-----0
 62
     2
  6
DASHDOT
 10
741.364014
 20
33.736771
 11
768.913391
 21
33.736771
  0
LINE
  8
LC-004-006-----0
 62
     2
  6
DASHDOT
 10
755.414978
 20
48.233414
 11
755.414978
 21
19.431566
  0
ARC
  8
LC-003-002-----0
 62
     1
  6
CONTINUOUS
 10
755.414978
 20
33.736771
 40
10.000000
 50
90.000003
 51
269.999997
  0
CIRCLE
  8
LC-003-002-----0
 62
     1
  6
CONTINUOUS
 10
755.414978
 20
33.736771
 40
6.750000
  0
ARC
  8
LC-008-003-----0
 62
     2
  6
CONTINUOUS
 10
755.414978
 20
33.736771
 40
8.000000
 50
172.452660
 51
95.932882
  0
LINE
  8
LC-003-002-----0
 62
     1
  6
CONTINUOUS
 10
756.414978
 20
23.736773
 11
756.414978
 21
-6.263228
  0
LINE
  8
LC-003-002-----0
 62
     1
  6
CONTINUOUS
 10
755.414978
 20
43.736771
 11
766.414978
 21
43.736771
  0
LINE
  8
LC-003-002-----0
 62
     1
  6
CONTINUOUS
 10
755.414978
 20
23.736773
 11
766.414978
 21
23.736773
  0
LINE
  8
LC-004-006-----0
 62
     2
  6
DASHDOT
 10
741.364014
 20
-16.263227
 11
768.913391
 21
-16.263227
  0
LINE
  8
LC-004-006-----0
 62
     2
  6
DASHDOT
 10
755.414978
 20
-30.759871
 11
755.414978
 21
-1.958022
  0
ARC
  8
LC-003-002-----0
 62
     1
  6
CONTINUOUS
 10
755.414978
 20
-16.263227
 40
10.000000
 50
90.000003
 51
269.999997
  0
CIRCLE
  8
LC-003-002-----0
 62
     1
  6
CONTINUOUS
 10
755.414978
 20
-16.263227
 40
6.750000
  0
ARC
  8
LC-008-003-----0
 62
     2
  6
CONTINUOUS
 10
755.414978
 20
-16.263227
 40
8.000000
 50
264.067118
 51
187.547340
  0
LINE
  8
LC-003-002-----0
 62
     1
  6
CONTINUOUS
 10
755.414978
 20
-26.263227
 11
766.414978
 21
-26.263227
  0
LINE
  8
LC-003-002-----0
 62
     1
  6
CONTINUOUS
 10
755.414978
 20
-6.263228
 11
766.414978
 21
-6.263228
  0
LINE
  8
LC-003-002-----0
 62
     1
  6
CONTINUOUS
 10
756.414978
 20
-26.263227
 11
756.414978
 21
-47.763229
  0
LINE
  8
LC-006-012-----0
 62
     2
  6
DASHED
 10
663.914978
 20
65.236771
 11
663.914978
 21
-47.763229
  0
LINE
  8
LC-003-002-----0
 62
     1
  6
CONTINUOUS
 10
683.695313
 20
65.236771
 11
683.695313
 21
-47.763229
  0
LINE
  8
LC-003-002-----0
 62
     1
  6
CONTINUOUS
 10
685.566833
 20
65.236771
 11
685.566833
 21
-47.763229
  0
LINE
  8
LC-003-002-----0
 62
     1
  6
CONTINUOUS
 10
690.849548
 20
65.236771
 11
690.849548
 21
-47.763229
  0
LINE
  8
LC-006-012-----0
 62
     2
  6
DASHED
 10
738.914978
 20
65.236771
 11
738.914978
 21
-47.763229
  0
LINE
  8
LC-003-002-----0
 62
     1
  6
CONTINUOUS
 10
719.134705
 20
65.236771
 11
719.134705
 21
-47.763229
  0
LINE
  8
LC-003-002-----0
 62
     1
  6
CONTINUOUS
 10
717.263184
 20
65.236771
 11
717.263184
 21
-47.763229
  0
LINE
  8
LC-003-002-----0
 62
     1
  6
CONTINUOUS
 10
711.980469
 20
65.236771
 11
711.980469
 21
-47.763229
  0
LINE
  8
LC-003-002-----0
 62
     1
  6
CONTINUOUS
 10
676.414978
 20
89.779182
 11
676.414978
 21
65.236771
  0
LINE
  8
LC-003-002-----0
 62
     1
  6
CONTINUOUS
 10
726.414978
 20
88.496468
 11
726.414978
 21
65.236771
  0
LINE
  8
LC-004-006-----0
 62
     2
  6
DASHDOT
 10
701.414978
 20
96.580627
 11
701.414978
 21
-86.756592
  0
LINE
  8
LC-008-003-----0
 62
     2
  6
CONTINUOUS
 10
676.414978
 20
89.779182
 11
688.792480
 21
88.029449
  0
LINE
  8
LC-008-003-----0
 62
     2
  6
CONTINUOUS
 10
688.792480
 20
88.029449
 11
711.930115
 21
90.081734
  0
LINE
  8
LC-008-003-----0
 62
     2
  6
CONTINUOUS
 10
711.930115
 20
90.081734
 11
726.414978
 21
88.496468
  0
LINE
  8
LC-008-003-----0
 62
     2
  6
CONTINUOUS
 10
676.414978
 20
-80.987610
 11
685.163086
 21
-81.625885
  0
LINE
  8
LC-008-003-----0
 62
     2
  6
CONTINUOUS
 10
685.163086
 20
-81.625885
 11
713.744873
 21
-77.863365
  0
LINE
  8
LC-008-003-----0
 62
     2
  6
CONTINUOUS
 10
713.744873
 20
-77.863365
 11
726.414978
 21
-80.410706
  0
LINE
  8
LC-006-012-----0
 62
     2
  6
DASHED
 10
676.414978
 20
65.236771
 11
676.414978
 21
-47.763229
  0
LINE
  8
LC-006-012-----0
 62
     2
  6
DASHED
 10
726.414978
 20
65.236771
 11
726.414978
 21
-47.763229
  0
LINE
  8
LC-003-002-----0
 62
     1
  6
CONTINUOUS
 10
676.414978
 20
-47.763229
 11
676.414978
 21
-80.987610
  0
LINE
  8
LC-003-002-----0
 62
     1
  6
CONTINUOUS
 10
726.414978
 20
-47.763229
 11
726.414978
 21
-80.410706
  0
LINE
  8
LC-003-002-----0
 62
     1
  6
CONTINUOUS
 10
839.263062
 20
147.323547
 11
952.263062
 21
147.323547
  0
LINE
  8
LC-003-002-----0
 62
     1
  6
CONTINUOUS
 10
839.263062
 20
235.323547
 11
952.263062
 21
235.323547
  0
LINE
  8
LC-003-002-----0
 62
     1
  6
CONTINUOUS
 10
952.263062
 20
235.323547
 11
952.263062
 21
147.323547
  0
LINE
  8
LC-003-002-----0
 62
     1
  6
CONTINUOUS
 10
839.263062
 20
235.323547
 11
839.263062
 21
147.323547
  0
LINE
  8
LC-004-006-----0
 62
     2
  6
DASHDOT
 10
895.763062
 20
207.009476
 11
895.763062
 21
182.320557
  0
LINE
  8
LC-004-006-----0
 62
     2
  6
DASHDOT
 10
884.603455
 20
194.823547
 11
907.876892
 21
194.823547
  0
CIRCLE
  8
LC-006-012-----0
 62
     2
  6
DASHED
 10
895.763062
 20
194.823547
 40
7.500000
  0
LINE
  8
LC-004-006-----0
 62
     2
  6
DASHDOT
 10
920.763062
 20
141.239944
 11
920.763062
 21
241.593170
  0
LINE
  8
LC-006-012-----0
 62
     2
  6
DASHED
 10
912.763062
 20
147.323547
 11
912.763062
 21
181.323547
  0
LINE
  8
LC-006-012-----0
 62
     2
  6
DASHED
 10
928.763062
 20
147.323547
 11
928.763062
 21
181.323547
  0
LINE
  8
LC-006-012-----0
 62
     2
  6
DASHED
 10
914.013062
 20
147.323547
 11
914.013062
 21
223.323547
  0
LINE
  8
LC-006-012-----0
 62
     2
  6
DASHED
 10
927.513062
 20
147.323547
 11
927.513062
 21
223.323547
  0
LINE
  8
LC-006-012-----0
 62
     2
  6
DASHED
 10
928.763062
 20
181.323547
 11
912.763062
 21
181.323547
  0
LINE
  8
LC-004-006-----0
 62
     2
  6
DASHDOT
 10
810.019104
 20
197.323547
 11
979.219360
 21
197.323547
  0
LINE
  8
LC-003-002-----0
 62
     1
  6
CONTINUOUS
 10
910.763062
 20
223.323547
 11
910.763062
 21
235.323547
  0
LINE
  8
LC-003-002-----0
 62
     1
  6
CONTINUOUS
 10
930.763062
 20
223.323547
 11
910.763062
 21
223.323547
  0
LINE
  8
LC-003-002-----0
 62
     1
  6
CONTINUOUS
 10
930.763062
 20
225.323547
 11
952.263062
 21
225.323547
  0
LINE
  8
LC-004-006-----0
 62
     2
  6
DASHDOT
 10
870.763062
 20
141.239944
 11
870.763062
 21
241.593170
  0
LINE
  8
LC-006-012-----0
 62
     2
  6
DASHED
 10
878.763062
 20
147.323547
 11
878.763062
 21
181.323547
  0
LINE
  8
LC-006-012-----0
 62
     2
  6
DASHED
 10
862.763062
 20
147.323547
 11
862.763062
 21
181.323547
  0
LINE
  8
LC-006-012-----0
 62
     2
  6
DASHED
 10
877.513062
 20
147.323547
 11
877.513062
 21
223.323547
  0
LINE
  8
LC-006-012-----0
 62
     2
  6
DASHED
 10
864.013062
 20
147.323547
 11
864.013062
 21
223.323547
  0
LINE
  8
LC-006-012-----0
 62
     2
  6
DASHED
 10
862.763062
 20
181.323547
 11
878.763062
 21
181.323547
  0
LINE
  8
LC-003-002-----0
 62
     1
  6
CONTINUOUS
 10
860.763062
 20
223.323547
 11
860.763062
 21
235.323547
  0
LINE
  8
LC-003-002-----0
 62
     1
  6
CONTINUOUS
 10
860.763062
 20
223.323547
 11
880.763062
 21
223.323547
  0
LINE
  8
LC-003-002-----0
 62
     1
  6
CONTINUOUS
 10
880.763062
 20
223.323547
 11
880.763062
 21
235.323547
  0
LINE
  8
LC-006-012-----0
 62
     2
  6
DASHED
 10
892.438110
 20
192.903870
 11
895.763062
 21
190.984177
  0
LINE
  8
LC-006-012-----0
 62
     2
  6
DASHED
 10
895.763062
 20
198.662933
 11
899.088074
 21
196.743240
  0
LINE
  8
LC-006-012-----0
 62
     2
  6
DASHED
 10
892.438110
 20
196.743240
 11
892.438110
 21
192.903870
  0
LINE
  8
LC-006-012-----0
 62
     2
  6
DASHED
 10
899.088074
 20
196.743240
 11
899.088074
 21
192.903870
  0
LINE
  8
LC-006-012-----0
 62
     2
  6
DASHED
 10
895.763062
 20
198.662933
 11
892.438110
 21
196.743240
  0
LINE
  8
LC-006-012-----0
 62
     2
  6
DASHED
 10
899.088074
 20
192.903870
 11
895.763062
 21
190.984177
  0
CIRCLE
  8
LC-006-012-----0
 62
     2
  6
DASHED
 10
895.763062
 20
194.823547
 40
3.325000
  0
LINE
  8
LC-003-002-----0
 62
     1
  6
CONTINUOUS
 10
880.763062
 20
225.323547
 11
910.763062
 21
225.323547
  0
LINE
  8
LC-006-012-----0
 62
     2
  6
DASHED
 10
839.263062
 20
231.310089
 11
952.263062
 21
231.310089
  0
LINE
  8
LC-006-012-----0
 62
     2
  6
DASHED
 10
839.263062
 20
159.823547
 11
952.263062
 21
159.823547
  0
LINE
  8
LC-006-012-----0
 62
     2
  6
DASHED
 10
839.263062
 20
219.981247
 11
952.263062
 21
219.981247
  0
LINE
  8
LC-003-002-----0
 62
     1
  6
CONTINUOUS
 10
813.199890
 20
222.323547
 11
839.263062
 21
222.323547
  0
LINE
  8
LC-008-003-----0
 62
     2
  6
CONTINUOUS
 10
815.036133
 20
172.323547
 11
815.530945
 21
185.193192
  0
LINE
  8
LC-008-003-----0
 62
     2
  6
CONTINUOUS
 10
815.530945
 20
185.193192
 11
812.612915
 21
209.637650
  0
LINE
  8
LC-008-003-----0
 62
     2
  6
CONTINUOUS
 10
812.612915
 20
209.637650
 11
813.199890
 21
222.323547
  0
LINE
  8
LC-008-003-----0
 62
     2
  6
CONTINUOUS
 10
975.207703
 20
172.323547
 11
973.959167
 21
183.888657
  0
LINE
  8
LC-008-003-----0
 62
     2
  6
CONTINUOUS
 10
973.959167
 20
183.888657
 11
974.616638
 21
210.658279
  0
LINE
  8
LC-008-003-----0
 62
     2
  6
CONTINUOUS
 10
974.616638
 20
210.658279
 11
973.594910
 21
222.323547
  0
LINE
  8
LC-003-002-----0
 62
     1
  6
CONTINUOUS
 10
815.036133
 20
172.323547
 11
839.263062
 21
172.323547
  0
LINE
  8
LC-006-012-----0
 62
     2
  6
DASHED
 10
839.263062
 20
172.323547
 11
952.263062
 21
172.323547
  0
LINE
  8
LC-006-012-----0
 62
     2
  6
DASHED
 10
839.263062
 20
222.323547
 11
952.263062
 21
222.323547
  0
LINE
  8
LC-003-002-----0
 62
     1
  6
CONTINUOUS
 10
952.263062
 20
222.323547
 11
973.594910
 21
222.323547
  0
LINE
  8
LC-003-002-----0
 62
     1
  6
CONTINUOUS
 10
952.263062
 20
172.323547
 11
975.207703
 21
172.323547
  0
LINE
  8
LC-003-002-----0
 62
     1
  6
CONTINUOUS
 10
685.566833
 20
231.310089
 11
683.695313
 21
235.323547
  0
LINE
  8
LC-003-002-----0
 62
     1
  6
CONTINUOUS
 10
717.263184
 20
231.310089
 11
719.134705
 21
235.323547
  0
ENDSEC
  0
EOF
