  0
SECTION
  2
HEADER
  9
$LIMMIN
 10
-73.665695
 20
301.967743
  9
$LIMMAX
 10
54.537342
 20
446.706726
  9
$EXTMIN
 10
-73.665695
 20
301.967743
  9
$EXTMAX
 10
54.537342
 20
446.706726
  0
ENDSEC
  0
SECTION
  2
TABLES
  0
TABLE
  2
LTYPE
 70
     3
  0
LTYPE
  2
CONTINUOUS
 70
    64
  3
Ausgezogene Linie
 72
    65
 73
     0
 40
0.0
  0
LTYPE
  2
DASHED
 70
    64
  3
__ __ __ __ __ __ __ __ __ __ __ __ __ __ __
 72
    65
 73
     2
 40
0.75
 49
0.5
 49
-0.25
  0
LTYPE
  2
DASHDOT
 70
    64
  3
__ . __ . __ . __ . __ . __ . __ . __ . __ . __
 72
    65
 73
     4
 40
1.0
 49
0.5
 49
-0.25
 49
0.0
 49
-0.25
  0
ENDTAB
  0
TABLE
  2
LAYER
 70
     5
  0
LAYER
  2
LC-INFO-1-1-MM-A1-0
 70
    64
 62
     7
  6
CONTINUOUS
  0
LAYER
  2
LC-003-002-----0
 70
    64
 62
     7
  6
CONTINUOUS
  0
LAYER
  2
LC-004-006-----0
 70
    64
 62
     7
  6
CONTINUOUS
  0
LAYER
  2
LC-006-012-----0
 70
    64
 62
     7
  6
CONTINUOUS
  0
LAYER
  2
LC-008-003-----0
 70
    64
 62
     7
  6
CONTINUOUS
  0
ENDTAB
  0
TABLE
  2
STYLE
 70
     1
  0
STYLE
  2
TXT8
 70
    64
 40
0.0
 41
1.0
 50
0.0
 71
     0
 42
3.500000
  3
TXT8
  4

  0
ENDTAB
  0
ENDSEC
  0
SECTION
  2
BLOCKS
  0
ENDSEC
  0
SECTION
  2
ENTITIES
  0
ARC
  8
LC-003-002-----0
 62
     1
  6
CONTINUOUS
 10
25.581398
 20
445.062103
 40
3.170566
 50
180.250540
 51
213.801973
  0
ARC
  8
LC-003-002-----0
 62
     1
  6
CONTINUOUS
 10
26.090704
 20
445.414154
 40
3.789647
 50
213.941117
 51
243.687425
  0
ARC
  8
LC-003-002-----0
 62
     1
  6
CONTINUOUS
 10
26.398743
 20
445.996216
 40
4.447981
 50
243.454092
 51
270.156293
  0
ARC
  8
LC-003-002-----0
 62
     1
  6
CONTINUOUS
 10
26.422983
 20
445.996216
 40
4.447976
 50
269.844051
 51
296.546279
  0
ARC
  8
LC-003-002-----0
 62
     1
  6
CONTINUOUS
 10
26.731028
 20
445.414154
 40
3.789637
 50
296.312946
 51
326.059301
  0
ARC
  8
LC-003-002-----0
 62
     1
  6
CONTINUOUS
 10
27.240332
 20
445.062103
 40
3.170561
 50
326.198456
 51
359.749920
  0
LINE
  8
LC-003-002-----0
 62
     1
  6
CONTINUOUS
 10
-73.665695
 20
412.048248
 11
-33.665703
 21
412.048248
  0
LINE
  8
LC-003-002-----0
 62
     1
  6
CONTINUOUS
 10
-73.665695
 20
412.048248
 11
-73.665695
 21
440.048248
  0
LINE
  8
LC-003-002-----0
 62
     1
  6
CONTINUOUS
 10
-68.665695
 20
445.048248
 11
-38.665703
 21
445.048248
  0
LINE
  8
LC-003-002-----0
 62
     1
  6
CONTINUOUS
 10
-33.665699
 20
440.048248
 11
-33.665699
 21
412.048248
  0
LINE
  8
LC-003-002-----0
 62
     1
  6
CONTINUOUS
 10
-73.665695
 20
440.048248
 11
-68.665695
 21
445.048248
  0
LINE
  8
LC-003-002-----0
 62
     1
  6
CONTINUOUS
 10
-38.665699
 20
445.048248
 11
-33.665699
 21
440.048248
  0
LINE
  8
LC-004-006-----0
 62
     2
  6
DASHDOT
 10
-53.665699
 20
417.573090
 11
-53.665699
 21
440.102386
  0
LINE
  8
LC-004-006-----0
 62
     2
  6
DASHDOT
 10
-64.880051
 20
429.048248
 11
-42.464199
 21
429.048248
  0
CIRCLE
  8
LC-003-002-----0
 62
     1
  6
CONTINUOUS
 10
-53.665699
 20
429.048248
 40
6.000000
  0
CIRCLE
  8
LC-003-002-----0
 62
     1
  6
CONTINUOUS
 10
-53.665699
 20
429.048248
 40
9.500000
  0
CIRCLE
  8
LC-003-002-----0
 62
     1
  6
CONTINUOUS
 10
-53.665699
 20
429.048248
 40
8.000000
  0
LINE
  8
LC-004-006-----0
 62
     2
  6
DASHDOT
 10
-39.165699
 20
409.419983
 11
-39.165699
 21
446.706726
  0
LINE
  8
LC-006-012-----0
 62
     2
  6
DASHED
 10
-36.665699
 20
412.048248
 11
-36.665699
 21
423.048248
  0
LINE
  8
LC-006-012-----0
 62
     2
  6
DASHED
 10
-41.665699
 20
412.048248
 11
-41.665699
 21
423.048248
  0
LINE
  8
LC-006-012-----0
 62
     2
  6
DASHED
 10
-44.165699
 20
344.484924
 11
-44.165699
 21
316.484924
  0
LINE
  8
LC-006-012-----0
 62
     2
  6
DASHED
 10
-41.665699
 20
423.048248
 11
-36.665699
 21
423.048248
  0
LINE
  8
LC-006-012-----0
 62
     2
  6
DASHED
 10
-37.015697
 20
412.048248
 11
-37.015697
 21
428.048248
  0
LINE
  8
LC-006-012-----0
 62
     2
  6
DASHED
 10
-41.315697
 20
412.048248
 11
-41.315697
 21
428.048248
  0
LINE
  8
LC-006-012-----0
 62
     2
  6
DASHED
 10
-43.165699
 20
428.048248
 11
-35.165699
 21
428.048248
  0
LINE
  8
LC-006-012-----0
 62
     2
  6
DASHED
 10
-35.165699
 20
428.048248
 11
-35.165699
 21
441.548248
  0
LINE
  8
LC-006-012-----0
 62
     2
  6
DASHED
 10
-43.165699
 20
428.048248
 11
-43.165699
 21
445.048248
  0
LINE
  8
LC-004-006-----0
 62
     2
  6
DASHDOT
 10
-68.165695
 20
409.419983
 11
-68.165695
 21
446.706726
  0
LINE
  8
LC-006-012-----0
 62
     2
  6
DASHED
 10
-70.665695
 20
412.048248
 11
-70.665695
 21
423.048248
  0
LINE
  8
LC-006-012-----0
 62
     2
  6
DASHED
 10
-65.665695
 20
412.048248
 11
-65.665695
 21
423.048248
  0
LINE
  8
LC-006-012-----0
 62
     2
  6
DASHED
 10
-65.665695
 20
423.048248
 11
-70.665695
 21
423.048248
  0
LINE
  8
LC-006-012-----0
 62
     2
  6
DASHED
 10
-70.315697
 20
412.048248
 11
-70.315697
 21
428.048248
  0
LINE
  8
LC-006-012-----0
 62
     2
  6
DASHED
 10
-66.015701
 20
412.048248
 11
-66.015701
 21
428.048248
  0
LINE
  8
LC-006-012-----0
 62
     2
  6
DASHED
 10
-64.165695
 20
428.048248
 11
-72.165695
 21
428.048248
  0
LINE
  8
LC-006-012-----0
 62
     2
  6
DASHED
 10
-64.165695
 20
428.048248
 11
-64.165695
 21
445.048248
  0
LINE
  8
LC-006-012-----0
 62
     2
  6
DASHED
 10
-72.165695
 20
428.048248
 11
-72.165695
 21
441.548248
  0
LINE
  8
LC-003-002-----0
 62
     1
  6
CONTINUOUS
 10
12.410862
 20
412.048248
 11
40.410862
 21
412.048248
  0
LINE
  8
LC-003-002-----0
 62
     1
  6
CONTINUOUS
 10
12.410862
 20
445.048248
 11
40.410862
 21
445.048248
  0
LINE
  8
LC-003-002-----0
 62
     1
  6
CONTINUOUS
 10
12.410862
 20
412.048248
 11
12.410862
 21
445.048248
  0
LINE
  8
LC-003-002-----0
 62
     1
  6
CONTINUOUS
 10
40.410862
 20
412.048248
 11
40.410862
 21
445.048248
  0
LINE
  8
LC-003-002-----0
 62
     1
  6
CONTINUOUS
 10
12.410862
 20
440.048248
 11
40.410862
 21
440.048248
  0
LINE
  8
LC-004-006-----0
 62
     2
  6
DASHDOT
 10
-3.139582
 20
429.048248
 11
54.537342
 21
429.048248
  0
LINE
  8
LC-004-006-----0
 62
     2
  6
DASHDOT
 10
26.410862
 20
409.419983
 11
26.410862
 21
446.706726
  0
LINE
  8
LC-006-012-----0
 62
     2
  6
DASHED
 10
28.910862
 20
412.048248
 11
28.910862
 21
423.048248
  0
LINE
  8
LC-006-012-----0
 62
     2
  6
DASHED
 10
23.910862
 20
412.048248
 11
23.910862
 21
423.048248
  0
LINE
  8
LC-006-012-----0
 62
     2
  6
DASHED
 10
23.910862
 20
423.048248
 11
28.910862
 21
423.048248
  0
LINE
  8
LC-006-012-----0
 62
     2
  6
DASHED
 10
28.560862
 20
412.048248
 11
28.560862
 21
428.048248
  0
LINE
  8
LC-006-012-----0
 62
     2
  6
DASHED
 10
24.260862
 20
412.048248
 11
24.260862
 21
428.048248
  0
LINE
  8
LC-006-012-----0
 62
     2
  6
DASHED
 10
22.410862
 20
428.048248
 11
30.410862
 21
428.048248
  0
LINE
  8
LC-006-012-----0
 62
     2
  6
DASHED
 10
30.410862
 20
428.048248
 11
30.410862
 21
445.048248
  0
LINE
  8
LC-003-002-----0
 62
     1
  6
CONTINUOUS
 10
-73.665695
 20
344.484924
 11
-73.665695
 21
316.484924
  0
LINE
  8
LC-006-012-----0
 62
     2
  6
DASHED
 10
22.410862
 20
428.048248
 11
22.410862
 21
445.048248
  0
LINE
  8
LC-006-012-----0
 62
     2
  6
DASHED
 10
12.410862
 20
438.548248
 11
40.410862
 21
438.548248
  0
LINE
  8
LC-003-002-----0
 62
     1
  6
CONTINUOUS
 10
-1.331345
 20
435.048248
 11
12.410862
 21
435.048248
  0
LINE
  8
LC-006-012-----0
 62
     2
  6
DASHED
 10
12.410862
 20
435.048248
 11
40.410862
 21
435.048248
  0
LINE
  8
LC-003-002-----0
 62
     1
  6
CONTINUOUS
 10
40.410862
 20
435.048248
 11
52.661568
 21
435.048248
  0
LINE
  8
LC-003-002-----0
 62
     1
  6
CONTINUOUS
 10
-1.563002
 20
423.048248
 11
12.410862
 21
423.048248
  0
LINE
  8
LC-006-012-----0
 62
     2
  6
DASHED
 10
12.410862
 20
423.048248
 11
40.410862
 21
423.048248
  0
LINE
  8
LC-006-012-----0
 62
     2
  6
DASHED
 10
12.410862
 20
423.048248
 11
40.410862
 21
423.048248
  0
LINE
  8
LC-006-012-----0
 62
     2
  6
DASHED
 10
12.410862
 20
419.548248
 11
40.410862
 21
419.548248
  0
LINE
  8
LC-003-002-----0
 62
     1
  6
CONTINUOUS
 10
40.410862
 20
423.048248
 11
52.550091
 21
423.048248
  0
LINE
  8
LC-008-003-----0
 62
     2
  6
CONTINUOUS
 10
-1.563002
 20
423.048248
 11
-1.036680
 21
425.954742
  0
LINE
  8
LC-008-003-----0
 62
     2
  6
CONTINUOUS
 10
-1.036680
 20
425.954742
 11
-1.610199
 21
431.884064
  0
LINE
  8
LC-008-003-----0
 62
     2
  6
CONTINUOUS
 10
-1.610199
 20
431.884064
 11
-1.331345
 21
435.048248
  0
LINE
  8
LC-008-003-----0
 62
     2
  6
CONTINUOUS
 10
52.550091
 20
423.048248
 11
52.874096
 21
426.316284
  0
LINE
  8
LC-008-003-----0
 62
     2
  6
CONTINUOUS
 10
52.874096
 20
426.316284
 11
52.396164
 21
431.956360
  0
LINE
  8
LC-008-003-----0
 62
     2
  6
CONTINUOUS
 10
52.396164
 20
431.956360
 11
52.661568
 21
435.048248
  0
LINE
  8
LC-003-002-----0
 62
     1
  6
CONTINUOUS
 10
-73.665695
 20
316.484924
 11
-33.665703
 21
316.484924
  0
LINE
  8
LC-003-002-----0
 62
     1
  6
CONTINUOUS
 10
-33.665699
 20
344.484924
 11
-33.665699
 21
316.484924
  0
LINE
  8
LC-003-002-----0
 62
     1
  6
CONTINUOUS
 10
-73.665695
 20
344.484924
 11
-33.665703
 21
344.484924
  0
LINE
  8
LC-004-006-----0
 62
     2
  6
DASHDOT
 10
-53.665699
 20
356.846375
 11
-53.665699
 21
301.967743
  0
LINE
  8
LC-004-006-----0
 62
     2
  6
DASHDOT
 10
-68.165695
 20
336.778198
 11
-68.165695
 21
324.271423
  0
LINE
  8
LC-004-006-----0
 62
     2
  6
DASHDOT
 10
-73.665695
 20
330.484924
 11
-62.438549
 21
330.484924
  0
CIRCLE
  8
LC-003-002-----0
 62
     1
  6
CONTINUOUS
 10
-68.165695
 20
330.484924
 40
4.000000
  0
ARC
  8
LC-008-003-----0
 62
     2
  6
CONTINUOUS
 10
-68.165695
 20
330.484924
 40
2.500000
 50
76.291874
 51
8.038456
  0
CIRCLE
  8
LC-003-002-----0
 62
     1
  6
CONTINUOUS
 10
-68.165695
 20
330.484924
 40
2.000000
  0
LINE
  8
LC-003-002-----0
 62
     1
  6
CONTINUOUS
 10
-68.665695
 20
344.484924
 11
-68.665695
 21
334.453552
  0
LINE
  8
LC-003-002-----0
 62
     1
  6
CONTINUOUS
 10
-68.665695
 20
326.516296
 11
-68.665695
 21
316.484924
  0
LINE
  8
LC-004-006-----0
 62
     2
  6
DASHDOT
 10
-39.165699
 20
336.778198
 11
-39.165699
 21
324.271423
  0
LINE
  8
LC-004-006-----0
 62
     2
  6
DASHDOT
 10
-33.665699
 20
330.484924
 11
-44.892853
 21
330.484924
  0
CIRCLE
  8
LC-003-002-----0
 62
     1
  6
CONTINUOUS
 10
-39.165699
 20
330.484924
 40
4.000000
  0
ARC
  8
LC-008-003-----0
 62
     2
  6
CONTINUOUS
 10
-39.165699
 20
330.484924
 40
2.500000
 50
171.961542
 51
103.708124
  0
CIRCLE
  8
LC-003-002-----0
 62
     1
  6
CONTINUOUS
 10
-39.165699
 20
330.484924
 40
2.000000
  0
LINE
  8
LC-003-002-----0
 62
     1
  6
CONTINUOUS
 10
-38.665699
 20
344.484924
 11
-38.665699
 21
334.453552
  0
LINE
  8
LC-003-002-----0
 62
     1
  6
CONTINUOUS
 10
-38.665699
 20
326.516296
 11
-38.665699
 21
316.484924
  0
LINE
  8
LC-003-002-----0
 62
     1
  6
CONTINUOUS
 10
-59.665699
 20
355.127472
 11
-59.665699
 21
344.484924
  0
LINE
  8
LC-006-012-----0
 62
     2
  6
DASHED
 10
-63.165699
 20
344.484924
 11
-63.165699
 21
316.484924
  0
LINE
  8
LC-006-012-----0
 62
     2
  6
DASHED
 10
-59.665699
 20
344.484924
 11
-59.665699
 21
316.484924
  0
LINE
  8
LC-003-002-----0
 62
     1
  6
CONTINUOUS
 10
-59.665699
 20
316.484924
 11
-59.665699
 21
304.683746
  0
LINE
  8
LC-006-012-----0
 62
     2
  6
DASHED
 10
-47.665699
 20
344.484924
 11
-47.665699
 21
316.484924
  0
LINE
  8
LC-003-002-----0
 62
     1
  6
CONTINUOUS
 10
-47.665699
 20
316.484924
 11
-47.665699
 21
304.527924
  0
LINE
  8
LC-003-002-----0
 62
     1
  6
CONTINUOUS
 10
-47.665699
 20
355.359680
 11
-47.665699
 21
344.484924
  0
LINE
  8
LC-008-003-----0
 62
     2
  6
CONTINUOUS
 10
-59.665699
 20
304.683746
 11
-56.282619
 21
304.191589
  0
LINE
  8
LC-008-003-----0
 62
     2
  6
CONTINUOUS
 10
-56.282619
 20
304.191589
 11
-51.256611
 21
304.478546
  0
LINE
  8
LC-008-003-----0
 62
     2
  6
CONTINUOUS
 10
-51.256611
 20
304.478546
 11
-47.665699
 21
304.527924
  0
LINE
  8
LC-008-003-----0
 62
     2
  6
CONTINUOUS
 10
-59.665699
 20
355.127472
 11
-56.282619
 21
354.837738
  0
LINE
  8
LC-008-003-----0
 62
     2
  6
CONTINUOUS
 10
-56.282619
 20
354.837738
 11
-50.687630
 21
355.411621
  0
LINE
  8
LC-008-003-----0
 62
     2
  6
CONTINUOUS
 10
-50.687630
 20
355.411621
 11
-47.665699
 21
355.359680
  0
ENDSEC
  0
EOF
