  0
SECTION
  2
HEADER
  9
$LIMMIN
 10
146.046249
 20
284.558533
  9
$LIMMAX
 10
300.516510
 20
448.139954
  9
$EXTMIN
 10
146.046249
 20
284.558533
  9
$EXTMAX
 10
300.516510
 20
448.139954
  0
ENDSEC
  0
SECTION
  2
TABLES
  0
TABLE
  2
LTYPE
 70
     3
  0
LTYPE
  2
CONTINUOUS
 70
    64
  3
Ausgezogene Linie
 72
    65
 73
     0
 40
0.0
  0
LTYPE
  2
DASHED
 70
    64
  3
__ __ __ __ __ __ __ __ __ __ __ __ __ __ __
 72
    65
 73
     2
 40
0.75
 49
0.5
 49
-0.25
  0
LTYPE
  2
DASHDOT
 70
    64
  3
__ . __ . __ . __ . __ . __ . __ . __ . __ . __
 72
    65
 73
     4
 40
1.0
 49
0.5
 49
-0.25
 49
0.0
 49
-0.25
  0
ENDTAB
  0
TABLE
  2
LAYER
 70
     5
  0
LAYER
  2
LC-INFO-1-1-MM-A1-0
 70
    64
 62
     7
  6
CONTINUOUS
  0
LAYER
  2
LC-003-002-----0
 70
    64
 62
     7
  6
CONTINUOUS
  0
LAYER
  2
LC-004-006-----0
 70
    64
 62
     7
  6
CONTINUOUS
  0
LAYER
  2
LC-006-012-----0
 70
    64
 62
     7
  6
CONTINUOUS
  0
LAYER
  2
LC-008-003-----0
 70
    64
 62
     7
  6
CONTINUOUS
  0
ENDTAB
  0
TABLE
  2
STYLE
 70
     1
  0
STYLE
  2
TXT8
 70
    64
 40
0.0
 41
1.0
 50
0.0
 71
     0
 42
3.500000
  3
TXT8
  4

  0
ENDTAB
  0
ENDSEC
  0
SECTION
  2
BLOCKS
  0
ENDSEC
  0
SECTION
  2
ENTITIES
  0
ARC
  8
LC-003-002-----0
 62
     1
  6
CONTINUOUS
 10
266.732727
 20
445.035919
 40
5.929016
 50
179.880736
 51
207.499388
  0
ARC
  8
LC-003-002-----0
 62
     1
  6
CONTINUOUS
 10
266.162323
 20
444.722260
 40
5.278243
 50
207.338524
 51
237.208854
  0
ARC
  8
LC-003-002-----0
 62
     1
  6
CONTINUOUS
 10
265.817291
 20
444.203705
 40
4.655472
 50
237.321920
 51
269.832931
  0
ARC
  8
LC-003-002-----0
 62
     1
  6
CONTINUOUS
 10
265.790161
 20
444.203705
 40
4.655472
 50
270.167057
 51
302.678075
  0
ARC
  8
LC-003-002-----0
 62
     1
  6
CONTINUOUS
 10
265.445160
 20
444.722260
 40
5.278243
 50
302.791141
 51
332.661476
  0
ARC
  8
LC-003-002-----0
 62
     1
  6
CONTINUOUS
 10
264.874725
 20
445.035919
 40
5.929016
 50
332.500600
 51
0.119253
  0
CIRCLE
  8
LC-003-002-----0
 62
     1
  6
CONTINUOUS
 10
172.546249
 20
423.048248
 40
12.000000
  0
CIRCLE
  8
LC-003-002-----0
 62
     1
  6
CONTINUOUS
 10
192.546249
 20
318.942963
 40
5.000000
  0
LINE
  8
LC-003-002-----0
 62
     1
  6
CONTINUOUS
 10
146.046249
 20
400.048248
 11
146.046249
 21
438.048248
  0
LINE
  8
LC-003-002-----0
 62
     1
  6
CONTINUOUS
 10
146.046249
 20
400.048248
 11
199.046249
 21
400.048248
  0
LINE
  8
LC-003-002-----0
 62
     1
  6
CONTINUOUS
 10
199.046249
 20
438.048248
 11
199.046249
 21
400.048248
  0
LINE
  8
LC-003-002-----0
 62
     1
  6
CONTINUOUS
 10
153.046249
 20
445.048248
 11
192.046249
 21
445.048248
  0
LINE
  8
LC-004-006-----0
 62
     2
  6
DASHDOT
 10
172.546249
 20
406.869110
 11
172.546249
 21
439.205017
  0
LINE
  8
LC-003-002-----0
 62
     1
  6
CONTINUOUS
 10
146.046249
 20
438.048248
 11
153.046249
 21
445.048248
  0
LINE
  8
LC-003-002-----0
 62
     1
  6
CONTINUOUS
 10
192.046249
 20
445.048248
 11
199.046249
 21
438.048248
  0
LINE
  8
LC-004-006-----0
 62
     2
  6
DASHDOT
 10
156.587494
 20
423.048248
 11
188.646652
 21
423.048248
  0
CIRCLE
  8
LC-003-002-----0
 62
     1
  6
CONTINUOUS
 10
172.546249
 20
423.048248
 40
10.000000
  0
CIRCLE
  8
LC-003-002-----0
 62
     1
  6
CONTINUOUS
 10
172.546249
 20
423.048248
 40
14.000000
  0
LINE
  8
LC-004-006-----0
 62
     2
  6
DASHDOT
 10
192.546249
 20
397.189606
 11
192.546249
 21
448.139954
  0
LINE
  8
LC-006-012-----0
 62
     2
  6
DASHED
 10
195.546249
 20
400.048248
 11
195.546249
 21
413.048248
  0
LINE
  8
LC-006-012-----0
 62
     2
  6
DASHED
 10
189.546249
 20
400.048248
 11
189.546249
 21
413.048248
  0
LINE
  8
LC-006-012-----0
 62
     2
  6
DASHED
 10
189.546249
 20
413.048248
 11
195.546249
 21
413.048248
  0
LINE
  8
LC-006-012-----0
 62
     2
  6
DASHED
 10
195.196259
 20
400.048248
 11
195.196259
 21
422.048248
  0
LINE
  8
LC-006-012-----0
 62
     2
  6
DASHED
 10
189.896255
 20
400.048248
 11
189.896255
 21
422.048248
  0
LINE
  8
LC-006-012-----0
 62
     2
  6
DASHED
 10
187.546249
 20
422.048248
 11
197.546249
 21
422.048248
  0
LINE
  8
LC-006-012-----0
 62
     2
  6
DASHED
 10
197.546249
 20
422.048248
 11
197.546249
 21
439.548248
  0
LINE
  8
LC-006-012-----0
 62
     2
  6
DASHED
 10
187.546249
 20
422.048248
 11
187.546249
 21
445.048248
  0
LINE
  8
LC-004-006-----0
 62
     2
  6
DASHDOT
 10
152.546249
 20
397.189606
 11
152.546249
 21
448.139954
  0
LINE
  8
LC-006-012-----0
 62
     2
  6
DASHED
 10
149.546249
 20
400.048248
 11
149.546249
 21
413.048248
  0
LINE
  8
LC-006-012-----0
 62
     2
  6
DASHED
 10
155.546249
 20
400.048248
 11
155.546249
 21
413.048248
  0
LINE
  8
LC-006-012-----0
 62
     2
  6
DASHED
 10
155.546249
 20
413.048248
 11
149.546249
 21
413.048248
  0
LINE
  8
LC-006-012-----0
 62
     2
  6
DASHED
 10
149.896255
 20
400.048248
 11
149.896255
 21
422.048248
  0
LINE
  8
LC-006-012-----0
 62
     2
  6
DASHED
 10
155.196259
 20
400.048248
 11
155.196259
 21
422.048248
  0
LINE
  8
LC-006-012-----0
 62
     2
  6
DASHED
 10
157.546249
 20
422.048248
 11
157.546249
 21
445.048248
  0
LINE
  8
LC-006-012-----0
 62
     2
  6
DASHED
 10
157.546249
 20
422.048248
 11
147.546249
 21
422.048248
  0
LINE
  8
LC-006-012-----0
 62
     2
  6
DASHED
 10
147.546249
 20
422.048248
 11
147.546249
 21
439.548248
  0
LINE
  8
LC-003-002-----0
 62
     1
  6
CONTINUOUS
 10
250.803726
 20
400.048248
 11
280.803741
 21
400.048248
  0
LINE
  8
LC-003-002-----0
 62
     1
  6
CONTINUOUS
 10
250.803726
 20
445.048248
 11
280.803741
 21
445.048248
  0
LINE
  8
LC-003-002-----0
 62
     1
  6
CONTINUOUS
 10
250.803726
 20
400.048248
 11
250.803726
 21
445.048248
  0
LINE
  8
LC-003-002-----0
 62
     1
  6
CONTINUOUS
 10
280.803741
 20
400.048248
 11
280.803741
 21
445.048248
  0
LINE
  8
LC-004-006-----0
 62
     2
  6
DASHDOT
 10
265.803741
 20
397.189606
 11
265.803741
 21
448.139954
  0
LINE
  8
LC-006-012-----0
 62
     2
  6
DASHED
 10
268.803741
 20
400.048248
 11
268.803741
 21
413.048248
  0
LINE
  8
LC-006-012-----0
 62
     2
  6
DASHED
 10
262.803741
 20
400.048248
 11
262.803741
 21
413.048248
  0
LINE
  8
LC-006-012-----0
 62
     2
  6
DASHED
 10
262.803741
 20
413.048248
 11
268.803741
 21
413.048248
  0
LINE
  8
LC-006-012-----0
 62
     2
  6
DASHED
 10
268.453735
 20
400.048248
 11
268.453735
 21
422.048248
  0
LINE
  8
LC-006-012-----0
 62
     2
  6
DASHED
 10
263.153717
 20
400.048248
 11
263.153717
 21
422.048248
  0
LINE
  8
LC-006-012-----0
 62
     2
  6
DASHED
 10
260.803741
 20
422.048248
 11
260.803741
 21
445.048248
  0
LINE
  8
LC-006-012-----0
 62
     2
  6
DASHED
 10
270.803741
 20
422.048248
 11
270.803741
 21
445.048248
  0
LINE
  8
LC-006-012-----0
 62
     2
  6
DASHED
 10
260.803741
 20
422.048248
 11
270.803741
 21
422.048248
  0
LINE
  8
LC-003-002-----0
 62
     1
  6
CONTINUOUS
 10
250.803726
 20
438.048248
 11
280.803741
 21
438.048248
  0
LINE
  8
LC-004-006-----0
 62
     2
  6
DASHDOT
 10
229.610382
 20
423.048248
 11
300.516510
 21
423.048248
  0
LINE
  8
LC-006-012-----0
 62
     2
  6
DASHED
 10
250.803726
 20
437.048248
 11
280.803741
 21
437.048248
  0
LINE
  8
LC-006-012-----0
 62
     2
  6
DASHED
 10
250.803726
 20
409.048248
 11
280.803741
 21
409.048248
  0
LINE
  8
LC-008-003-----0
 62
     2
  6
CONTINUOUS
 10
234.046860
 20
413.048248
 11
233.535080
 21
416.919739
  0
LINE
  8
LC-008-003-----0
 62
     2
  6
CONTINUOUS
 10
233.535080
 20
416.919739
 11
234.320023
 21
427.409973
  0
LINE
  8
LC-008-003-----0
 62
     2
  6
CONTINUOUS
 10
234.320023
 20
427.409973
 11
233.698914
 21
433.048248
  0
LINE
  8
LC-008-003-----0
 62
     2
  6
CONTINUOUS
 10
297.134766
 20
413.048248
 11
296.853455
 21
416.523895
  0
LINE
  8
LC-008-003-----0
 62
     2
  6
CONTINUOUS
 10
296.853455
 20
416.523895
 11
296.591827
 21
426.816193
  0
LINE
  8
LC-008-003-----0
 62
     2
  6
CONTINUOUS
 10
296.591827
 20
426.816193
 11
295.246796
 21
433.048248
  0
LINE
  8
LC-003-002-----0
 62
     1
  6
CONTINUOUS
 10
233.698914
 20
433.048248
 11
250.803726
 21
433.048248
  0
LINE
  8
LC-006-012-----0
 62
     2
  6
DASHED
 10
250.803726
 20
433.048248
 11
280.803741
 21
433.048248
  0
LINE
  8
LC-003-002-----0
 62
     1
  6
CONTINUOUS
 10
234.046860
 20
413.048248
 11
250.803726
 21
413.048248
  0
LINE
  8
LC-006-012-----0
 62
     2
  6
DASHED
 10
250.803726
 20
413.048248
 11
280.803741
 21
413.048248
  0
LINE
  8
LC-003-002-----0
 62
     1
  6
CONTINUOUS
 10
280.803741
 20
413.048248
 11
297.134766
 21
413.048248
  0
LINE
  8
LC-003-002-----0
 62
     1
  6
CONTINUOUS
 10
280.803741
 20
433.048248
 11
295.246796
 21
433.048248
  0
LINE
  8
LC-003-002-----0
 62
     1
  6
CONTINUOUS
 10
146.046249
 20
333.942963
 11
146.046249
 21
303.942963
  0
LINE
  8
LC-003-002-----0
 62
     1
  6
CONTINUOUS
 10
146.046249
 20
303.942963
 11
199.046249
 21
303.942963
  0
LINE
  8
LC-003-002-----0
 62
     1
  6
CONTINUOUS
 10
199.046249
 20
333.942963
 11
199.046249
 21
303.942963
  0
LINE
  8
LC-003-002-----0
 62
     1
  6
CONTINUOUS
 10
146.046249
 20
333.942963
 11
199.046249
 21
333.942963
  0
LINE
  8
LC-004-006-----0
 62
     2
  6
DASHDOT
 10
172.546249
 20
350.276459
 11
172.546249
 21
284.558533
  0
LINE
  8
LC-004-006-----0
 62
     2
  6
DASHDOT
 10
152.546249
 20
325.840088
 11
152.546249
 21
311.851379
  0
LINE
  8
LC-004-006-----0
 62
     2
  6
DASHDOT
 10
146.046249
 20
318.942963
 11
160.195221
 21
318.942963
  0
LINE
  8
LC-003-002-----0
 62
     1
  6
CONTINUOUS
 10
153.046249
 20
333.942963
 11
153.046249
 21
323.917877
  0
CIRCLE
  8
LC-003-002-----0
 62
     1
  6
CONTINUOUS
 10
152.546249
 20
318.942963
 40
5.000000
  0
CIRCLE
  8
LC-003-002-----0
 62
     1
  6
CONTINUOUS
 10
152.546249
 20
318.942963
 40
2.500000
  0
ARC
  8
LC-008-003-----0
 62
     2
  6
CONTINUOUS
 10
152.546249
 20
318.942963
 40
3.000000
 50
77.565520
 51
14.542668
  0
LINE
  8
LC-003-002-----0
 62
     1
  6
CONTINUOUS
 10
153.046249
 20
313.968018
 11
153.046249
 21
303.942963
  0
LINE
  8
LC-004-006-----0
 62
     2
  6
DASHDOT
 10
192.546249
 20
325.840088
 11
192.546249
 21
311.851379
  0
LINE
  8
LC-004-006-----0
 62
     2
  6
DASHDOT
 10
199.046249
 20
318.942963
 11
184.897293
 21
318.942963
  0
LINE
  8
LC-003-002-----0
 62
     1
  6
CONTINUOUS
 10
192.046249
 20
333.942963
 11
192.046249
 21
323.917877
  0
CIRCLE
  8
LC-003-002-----0
 62
     1
  6
CONTINUOUS
 10
192.546249
 20
318.942963
 40
2.500000
  0
ARC
  8
LC-008-003-----0
 62
     2
  6
CONTINUOUS
 10
192.546249
 20
318.942963
 40
3.000000
 50
165.457330
 51
102.434478
  0
LINE
  8
LC-003-002-----0
 62
     1
  6
CONTINUOUS
 10
192.046249
 20
313.968018
 11
192.046249
 21
303.942963
  0
LINE
  8
LC-006-012-----0
 62
     2
  6
DASHED
 10
158.546249
 20
333.942963
 11
158.546249
 21
303.942963
  0
LINE
  8
LC-006-012-----0
 62
     2
  6
DASHED
 10
186.546249
 20
333.942963
 11
186.546249
 21
303.942963
  0
LINE
  8
LC-003-002-----0
 62
     1
  6
CONTINUOUS
 10
162.546249
 20
346.494141
 11
162.546249
 21
333.942963
  0
LINE
  8
LC-003-002-----0
 62
     1
  6
CONTINUOUS
 10
182.546249
 20
346.284088
 11
182.546249
 21
333.942963
  0
LINE
  8
LC-008-003-----0
 62
     2
  6
CONTINUOUS
 10
162.546249
 20
346.494141
 11
168.116989
 21
346.494141
  0
LINE
  8
LC-008-003-----0
 62
     2
  6
CONTINUOUS
 10
168.116989
 20
346.494141
 11
178.116867
 21
345.548553
  0
LINE
  8
LC-008-003-----0
 62
     2
  6
CONTINUOUS
 10
178.116867
 20
345.548553
 11
182.546249
 21
346.284088
  0
LINE
  8
LC-008-003-----0
 62
     2
  6
CONTINUOUS
 10
162.546249
 20
288.625214
 11
168.741989
 21
288.104462
  0
LINE
  8
LC-008-003-----0
 62
     2
  6
CONTINUOUS
 10
168.741989
 20
288.104462
 11
179.054352
 21
289.050018
  0
LINE
  8
LC-008-003-----0
 62
     2
  6
CONTINUOUS
 10
179.054352
 20
289.050018
 11
182.546249
 21
288.823608
  0
LINE
  8
LC-006-012-----0
 62
     2
  6
DASHED
 10
162.546249
 20
333.942963
 11
162.546249
 21
303.942963
  0
LINE
  8
LC-006-012-----0
 62
     2
  6
DASHED
 10
182.546249
 20
333.942963
 11
182.546249
 21
303.942963
  0
LINE
  8
LC-003-002-----0
 62
     1
  6
CONTINUOUS
 10
162.546249
 20
303.942963
 11
162.546249
 21
288.625214
  0
LINE
  8
LC-003-002-----0
 62
     1
  6
CONTINUOUS
 10
182.546249
 20
303.942963
 11
182.546249
 21
288.823608
  0
ENDSEC
  0
EOF
