  0
SECTION
  2
HEADER
  9
$LIMMIN
 10
-122.535919
 20
584.683777
  9
$LIMMAX
 10
35.194069
 20
636.683777
  9
$EXTMIN
 10
-122.535919
 20
584.683777
  9
$EXTMAX
 10
35.194069
 20
636.683777
  0
ENDSEC
  0
SECTION
  2
TABLES
  0
TABLE
  2
LTYPE
 70
     3
  0
LTYPE
  2
CONTINUOUS
 70
    64
  3
Ausgezogene Linie
 72
    65
 73
     0
 40
0.0
  0
LTYPE
  2
DASHED
 70
    64
  3
__ __ __ __ __ __ __ __ __ __ __ __ __ __ __
 72
    65
 73
     2
 40
0.75
 49
0.5
 49
-0.25
  0
LTYPE
  2
CENTER
 70
    64
  3
____ _ ____ _ ____ _ ____ _ ____ _ ____ _ ____
 72
    65
 73
     4
 40
2.0
 49
1.25
 49
-0.25
 49
0.25
 49
-0.25
  0
ENDTAB
  0
TABLE
  2
LAYER
 70
     5
  0
LAYER
  2
LC-INFO-1-1-MM-A0-0
 70
    64
 62
     7
  6
CONTINUOUS
  0
LAYER
  2
LC-003-002-----0
 70
    64
 62
     7
  6
CONTINUOUS
  0
LAYER
  2
LC-002-021-SLN-3
 70
    64
 62
     7
  6
CONTINUOUS
  0
LAYER
  2
LC-001-150-----0
 70
    64
 62
     7
  6
CONTINUOUS
  0
LAYER
  2
LC-008-003-----0
 70
    64
 62
     7
  6
CONTINUOUS
  0
ENDTAB
  0
TABLE
  2
STYLE
 70
     1
  0
STYLE
  2
TXT8
 70
    64
 40
0.0
 41
1.0
 50
0.0
 71
     0
 42
3.500000
  3
TXT8
  4

  0
ENDTAB
  0
ENDSEC
  0
SECTION
  2
BLOCKS
  0
ENDSEC
  0
SECTION
  2
ENTITIES
  0
LINE
  8
LC-008-003-----0
 62
     2
  6
CONTINUOUS
 10
-1.070209
 20
621.183777
 11
-0.818913
 21
621.435059
  0
LINE
  8
LC-008-003-----0
 62
     2
  6
CONTINUOUS
 10
-1.777316
 20
621.183777
 11
-0.818913
 21
622.142151
  0
LINE
  8
LC-008-003-----0
 62
     2
  6
CONTINUOUS
 10
-2.018913
 20
621.649292
 11
-0.818913
 21
622.849243
  0
LINE
  8
LC-008-003-----0
 62
     2
  6
CONTINUOUS
 10
-2.018913
 20
622.356384
 11
-0.818913
 21
623.556396
  0
LINE
  8
LC-008-003-----0
 62
     2
  6
CONTINUOUS
 10
-2.018913
 20
623.063477
 11
-1.098636
 21
623.983765
  0
LINE
  8
LC-008-003-----0
 62
     2
  6
CONTINUOUS
 10
-2.018913
 20
623.770569
 11
-1.805743
 21
623.983765
  0
LINE
  8
LC-008-003-----0
 62
     2
  6
CONTINUOUS
 10
20.850101
 20
621.183777
 11
21.181087
 21
621.514771
  0
LINE
  8
LC-008-003-----0
 62
     2
  6
CONTINUOUS
 10
20.142996
 20
621.183777
 11
21.181087
 21
622.221863
  0
LINE
  8
LC-008-003-----0
 62
     2
  6
CONTINUOUS
 10
19.981087
 20
621.728943
 11
21.181087
 21
622.928955
  0
LINE
  8
LC-008-003-----0
 62
     2
  6
CONTINUOUS
 10
19.981087
 20
622.436035
 11
21.181087
 21
623.636047
  0
LINE
  8
LC-008-003-----0
 62
     2
  6
CONTINUOUS
 10
19.981087
 20
623.143188
 11
20.821674
 21
623.983765
  0
LINE
  8
LC-008-003-----0
 62
     2
  6
CONTINUOUS
 10
19.981087
 20
623.850281
 11
20.114567
 21
623.983765
  0
LINE
  8
LC-008-003-----0
 62
     2
  6
CONTINUOUS
 10
24.044430
 20
618.014099
 11
24.981087
 21
618.950806
  0
LINE
  8
LC-008-003-----0
 62
     2
  6
CONTINUOUS
 10
22.115366
 20
618.913513
 11
24.783678
 21
621.581787
  0
LINE
  8
LC-008-003-----0
 62
     2
  6
CONTINUOUS
 10
18.557207
 20
618.183777
 11
22.057207
 21
621.683777
  0
LINE
  8
LC-008-003-----0
 62
     2
  6
CONTINUOUS
 10
15.728781
 20
618.183777
 11
19.228781
 21
621.683777
  0
LINE
  8
LC-008-003-----0
 62
     2
  6
CONTINUOUS
 10
12.900354
 20
618.183777
 11
16.400354
 21
621.683777
  0
LINE
  8
LC-008-003-----0
 62
     2
  6
CONTINUOUS
 10
10.071927
 20
618.183777
 11
13.571927
 21
621.683777
  0
LINE
  8
LC-008-003-----0
 62
     2
  6
CONTINUOUS
 10
7.243500
 20
618.183777
 11
10.743500
 21
621.683777
  0
LINE
  8
LC-008-003-----0
 62
     2
  6
CONTINUOUS
 10
4.415072
 20
618.183777
 11
7.915072
 21
621.683777
  0
LINE
  8
LC-008-003-----0
 62
     2
  6
CONTINUOUS
 10
1.586645
 20
618.183777
 11
5.086645
 21
621.683777
  0
LINE
  8
LC-008-003-----0
 62
     2
  6
CONTINUOUS
 10
-1.241782
 20
618.183777
 11
2.258218
 21
621.683777
  0
LINE
  8
LC-008-003-----0
 62
     2
  6
CONTINUOUS
 10
-3.557338
 20
618.696655
 11
-1.070209
 21
621.183777
  0
LINE
  8
LC-008-003-----0
 62
     2
  6
CONTINUOUS
 10
-0.818913
 20
621.435059
 11
-0.570209
 21
621.683777
  0
LINE
  8
LC-008-003-----0
 62
     2
  6
CONTINUOUS
 10
-7.018913
 20
618.063477
 11
-3.398636
 21
621.683777
  0
LINE
  8
LC-008-003-----0
 62
     2
  6
CONTINUOUS
 10
-7.018913
 20
620.891907
 11
-6.227063
 21
621.683777
  0
LINE
  8
LC-008-003-----0
 62
     2
  6
CONTINUOUS
 10
19.981087
 20
624.900269
 11
19.197626
 21
625.683777
  0
LINE
  8
LC-008-003-----0
 62
     2
  6
CONTINUOUS
 10
19.981087
 20
622.071899
 11
16.369200
 21
625.683777
  0
LINE
  8
LC-008-003-----0
 62
     2
  6
CONTINUOUS
 10
17.540771
 20
621.683777
 11
13.540773
 21
625.683777
  0
LINE
  8
LC-008-003-----0
 62
     2
  6
CONTINUOUS
 10
14.712345
 20
621.683777
 11
10.712345
 21
625.683777
  0
LINE
  8
LC-008-003-----0
 62
     2
  6
CONTINUOUS
 10
11.883917
 20
621.683777
 11
7.883917
 21
625.683777
  0
LINE
  8
LC-008-003-----0
 62
     2
  6
CONTINUOUS
 10
3.981087
 20
629.586609
 11
1.883917
 21
631.683777
  0
LINE
  8
LC-008-003-----0
 62
     2
  6
CONTINUOUS
 10
9.055490
 20
621.683777
 11
5.055490
 21
625.683777
  0
LINE
  8
LC-008-003-----0
 62
     2
  6
CONTINUOUS
 10
3.981087
 20
626.758179
 11
-0.944510
 21
631.683777
  0
LINE
  8
LC-008-003-----0
 62
     2
  6
CONTINUOUS
 10
6.227063
 20
621.683777
 11
-2.018913
 21
629.929749
  0
LINE
  8
LC-008-003-----0
 62
     2
  6
CONTINUOUS
 10
3.398636
 20
621.683777
 11
-0.818913
 21
625.901306
  0
LINE
  8
LC-008-003-----0
 62
     2
  6
CONTINUOUS
 10
-1.001364
 20
626.083740
 11
-2.018913
 21
627.101318
  0
LINE
  8
LC-008-003-----0
 62
     2
  6
CONTINUOUS
 10
0.570209
 20
621.683777
 11
-0.818913
 21
623.072876
  0
LINE
  8
LC-003-002-----0
 62
     1
  6
CONTINUOUS
 10
-111.535919
 20
589.683777
 11
-81.535919
 21
589.683777
  0
LINE
  8
LC-003-002-----0
 62
     1
  6
CONTINUOUS
 10
-75.535919
 20
595.683777
 11
-75.535919
 21
625.683777
  0
LINE
  8
LC-003-002-----0
 62
     1
  6
CONTINUOUS
 10
-81.535919
 20
631.683777
 11
-111.535919
 21
631.683777
  0
LINE
  8
LC-002-021-SLN-3
 62
     2
  6
CENTER
 10
-70.535919
 20
610.683777
 11
-122.535919
 21
610.683777
  0
LINE
  8
LC-002-021-SLN-3
 62
     2
  6
CENTER
 10
-96.535919
 20
584.683777
 11
-96.535919
 21
636.683777
  0
LINE
  8
LC-002-021-SLN-3
 62
     2
  6
CENTER
 10
-103.785919
 20
625.683777
 11
-119.285919
 21
625.683777
  0
LINE
  8
LC-002-021-SLN-3
 62
     2
  6
CENTER
 10
-111.535919
 20
633.433777
 11
-111.535919
 21
617.933777
  0
LINE
  8
LC-002-021-SLN-3
 62
     2
  6
CENTER
 10
-73.785919
 20
625.683777
 11
-89.285919
 21
625.683777
  0
LINE
  8
LC-002-021-SLN-3
 62
     2
  6
CENTER
 10
-81.535919
 20
633.433777
 11
-81.535919
 21
617.933777
  0
CIRCLE
  8
LC-003-002-----0
 62
     1
  6
CONTINUOUS
 10
-111.535919
 20
625.683777
 40
2.750000
  0
CIRCLE
  8
LC-003-002-----0
 62
     1
  6
CONTINUOUS
 10
-81.535919
 20
625.683777
 40
2.750000
  0
LINE
  8
LC-003-002-----0
 62
     1
  6
CONTINUOUS
 10
-2.018913
 20
589.683777
 11
3.981087
 21
589.683777
  0
CIRCLE
  8
LC-003-002-----0
 62
     1
  6
CONTINUOUS
 10
-81.535919
 20
595.683777
 40
2.750000
  0
CIRCLE
  8
LC-003-002-----0
 62
     1
  6
CONTINUOUS
 10
-111.535919
 20
595.683777
 40
2.750000
  0
ARC
  8
LC-003-002-----0
 62
     1
  6
CONTINUOUS
 10
-111.535919
 20
625.683777
 40
6.000000
 50
90.000003
 51
180.000009
  0
ARC
  8
LC-003-002-----0
 62
     1
  6
CONTINUOUS
 10
-81.535919
 20
625.683777
 40
6.000000
 50
0.000000
 51
90.000003
  0
ARC
  8
LC-003-002-----0
 62
     1
  6
CONTINUOUS
 10
-81.535919
 20
595.683777
 40
6.000000
 50
269.999997
 51
0.000000
  0
ARC
  8
LC-003-002-----0
 62
     1
  6
CONTINUOUS
 10
-111.535919
 20
595.683777
 40
6.000000
 50
180.000009
 51
269.999997
  0
LINE
  8
LC-002-021-SLN-3
 62
     2
  6
CENTER
 10
-73.785919
 20
595.683777
 11
-89.285919
 21
595.683777
  0
LINE
  8
LC-002-021-SLN-3
 62
     2
  6
CENTER
 10
-81.535919
 20
603.433777
 11
-81.535919
 21
587.933777
  0
LINE
  8
LC-002-021-SLN-3
 62
     2
  6
CENTER
 10
-103.785919
 20
595.683777
 11
-119.285919
 21
595.683777
  0
LINE
  8
LC-002-021-SLN-3
 62
     2
  6
CENTER
 10
-111.535919
 20
603.433777
 11
-111.535919
 21
587.933777
  0
CIRCLE
  8
LC-003-002-----0
 62
     1
  6
CONTINUOUS
 10
-96.535919
 20
610.683777
 40
6.000000
  0
CIRCLE
  8
LC-003-002-----0
 62
     1
  6
CONTINUOUS
 10
-96.535919
 20
610.683777
 40
11.000000
  0
LINE
  8
LC-002-021-SLN-3
 62
     2
  6
CENTER
 10
35.194069
 20
610.683777
 11
-18.577620
 21
610.683777
  0
CIRCLE
  8
LC-003-002-----0
 62
     1
  6
CONTINUOUS
 10
-96.535919
 20
610.683777
 40
15.000000
  0
LINE
  8
LC-003-002-----0
 62
     1
  6
CONTINUOUS
 10
-2.018913
 20
631.683777
 11
3.981087
 21
631.683777
  0
LINE
  8
LC-003-002-----0
 62
     1
  6
CONTINUOUS
 10
-7.018913
 20
616.683777
 11
24.981087
 21
616.683777
  0
LINE
  8
LC-003-002-----0
 62
     1
  6
CONTINUOUS
 10
-6.518913
 20
599.683777
 11
-2.018913
 21
599.683777
  0
LINE
  8
LC-003-002-----0
 62
     1
  6
CONTINUOUS
 10
21.181087
 20
599.683777
 11
24.481087
 21
599.683777
  0
LINE
  8
LC-001-150-----0
 62
     2
  6
DASHED
 10
-2.018913
 20
598.433777
 11
3.981087
 21
598.433777
  0
LINE
  8
LC-003-002-----0
 62
     1
  6
CONTINUOUS
 10
-7.018913
 20
610.683777
 11
-7.018913
 21
600.183777
  0
LINE
  8
LC-003-002-----0
 62
     1
  6
CONTINUOUS
 10
24.981087
 20
610.683777
 11
24.981087
 21
600.183777
  0
LINE
  8
LC-003-002-----0
 62
     1
  6
CONTINUOUS
 10
3.981087
 20
589.683777
 11
3.981087
 21
610.683777
  0
LINE
  8
LC-003-002-----0
 62
     1
  6
CONTINUOUS
 10
-117.535919
 20
595.683777
 11
-117.535919
 21
625.683777
  0
LINE
  8
LC-003-002-----0
 62
     1
  6
CONTINUOUS
 10
19.981087
 20
595.683777
 11
19.981087
 21
610.683777
  0
LINE
  8
LC-003-002-----0
 62
     1
  6
CONTINUOUS
 10
-2.018913
 20
589.683777
 11
-2.018913
 21
610.683777
  0
LINE
  8
LC-003-002-----0
 62
     1
  6
CONTINUOUS
 10
4.981087
 20
595.683777
 11
19.981087
 21
595.683777
  0
LINE
  8
LC-001-150-----0
 62
     2
  6
DASHED
 10
-2.018913
 20
592.933777
 11
3.981087
 21
592.933777
  0
LINE
  8
LC-002-021-SLN-3
 62
     2
  6
CENTER
 10
8.981087
 20
595.683777
 11
-7.018912
 21
595.683777
  0
ARC
  8
LC-003-002-----0
 62
     1
  6
CONTINUOUS
 10
4.981087
 20
594.683777
 40
1.000000
 50
90.000003
 51
180.000009
  0
LINE
  8
LC-003-002-----0
 62
     1
  6
CONTINUOUS
 10
-13.018913
 20
604.683777
 11
-7.018912
 21
604.683777
  0
LINE
  8
LC-003-002-----0
 62
     1
  6
CONTINUOUS
 10
-0.818913
 20
626.083740
 11
-0.818913
 21
623.983765
  0
LINE
  8
LC-008-003-----0
 62
     2
  6
CONTINUOUS
 10
-13.018913
 20
616.683777
 11
-12.607277
 21
613.611816
  0
LINE
  8
LC-008-003-----0
 62
     2
  6
CONTINUOUS
 10
-12.607277
 20
613.611816
 11
-13.408673
 21
611.193542
  0
LINE
  8
LC-008-003-----0
 62
     2
  6
CONTINUOUS
 10
-13.408673
 20
611.193542
 11
-12.687571
 21
607.826172
  0
LINE
  8
LC-008-003-----0
 62
     2
  6
CONTINUOUS
 10
-12.687571
 20
607.826172
 11
-13.428746
 21
605.570984
  0
LINE
  8
LC-008-003-----0
 62
     2
  6
CONTINUOUS
 10
-13.428746
 20
605.570984
 11
-13.018913
 21
604.683777
  0
LINE
  8
LC-003-002-----0
 62
     1
  6
CONTINUOUS
 10
-2.018913
 20
626.083740
 11
-0.818913
 21
626.083740
  0
LINE
  8
LC-003-002-----0
 62
     1
  6
CONTINUOUS
 10
24.981087
 20
616.683777
 11
30.023033
 21
616.683777
  0
LINE
  8
LC-003-002-----0
 62
     1
  6
CONTINUOUS
 10
4.981087
 20
625.683777
 11
19.981087
 21
625.683777
  0
LINE
  8
LC-003-002-----0
 62
     1
  6
CONTINUOUS
 10
-7.018913
 20
616.683777
 11
-7.018913
 21
621.183777
  0
LINE
  8
LC-003-002-----0
 62
     1
  6
CONTINUOUS
 10
-2.018913
 20
631.683777
 11
-2.018913
 21
621.183777
  0
LINE
  8
LC-003-002-----0
 62
     1
  6
CONTINUOUS
 10
-0.818913
 20
621.183777
 11
-0.818913
 21
623.983765
  0
LINE
  8
LC-003-002-----0
 62
     1
  6
CONTINUOUS
 10
-2.018913
 20
621.183777
 11
-2.018913
 21
623.983765
  0
LINE
  8
LC-003-002-----0
 62
     1
  6
CONTINUOUS
 10
-6.518913
 20
621.683777
 11
-2.018913
 21
621.683777
  0
LINE
  8
LC-003-002-----0
 62
     1
  6
CONTINUOUS
 10
3.981087
 20
631.683777
 11
3.981087
 21
626.683777
  0
LINE
  8
LC-003-002-----0
 62
     1
  6
CONTINUOUS
 10
19.981087
 20
625.683777
 11
19.981087
 21
623.983765
  0
ARC
  8
LC-003-002-----0
 62
     1
  6
CONTINUOUS
 10
4.981087
 20
626.683777
 40
1.000000
 50
180.000009
 51
269.999997
  0
LINE
  8
LC-003-002-----0
 62
     1
  6
CONTINUOUS
 10
19.981087
 20
595.983765
 11
19.981087
 21
610.683777
  0
LINE
  8
LC-003-002-----0
 62
     1
  6
CONTINUOUS
 10
24.981087
 20
616.683777
 11
24.981087
 21
621.183777
  0
CIRCLE
  8
LC-003-002-----0
 62
     1
  6
CONTINUOUS
 10
20.958300
 20
617.694214
 40
0.750000
  0
LINE
  8
LC-003-002-----0
 62
     1
  6
CONTINUOUS
 10
21.181087
 20
623.983765
 11
21.181087
 21
621.183777
  0
LINE
  8
LC-003-002-----0
 62
     1
  6
CONTINUOUS
 10
21.181087
 20
610.683777
 11
21.181087
 21
595.983765
  0
ARC
  8
LC-003-002-----0
 62
     1
  6
CONTINUOUS
 10
24.481087
 20
621.183777
 40
0.500000
 50
0.000000
 51
90.000003
  0
ARC
  8
LC-003-002-----0
 62
     1
  6
CONTINUOUS
 10
24.481087
 20
600.183777
 40
0.500000
 50
269.999997
 51
0.000000
  0
ARC
  8
LC-003-002-----0
 62
     1
  6
CONTINUOUS
 10
-6.518913
 20
600.183777
 40
0.500000
 50
180.000009
 51
269.999997
  0
LINE
  8
LC-003-002-----0
 62
     1
  6
CONTINUOUS
 10
-0.818913
 20
623.983765
 11
-2.018913
 21
623.983765
  0
ARC
  8
LC-003-002-----0
 62
     1
  6
CONTINUOUS
 10
-6.518913
 20
621.183777
 40
0.500000
 50
90.000003
 51
180.000009
  0
LINE
  8
LC-008-003-----0
 62
     2
  6
CONTINUOUS
 10
30.023033
 20
616.683777
 11
30.999973
 21
613.405579
  0
LINE
  8
LC-008-003-----0
 62
     2
  6
CONTINUOUS
 10
30.999973
 20
613.405579
 11
29.741297
 21
609.154602
  0
LINE
  8
LC-003-002-----0
 62
     1
  6
CONTINUOUS
 10
-13.018913
 20
616.683777
 11
-7.018912
 21
616.683777
  0
LINE
  8
LC-008-003-----0
 62
     2
  6
CONTINUOUS
 10
29.741297
 20
609.154602
 11
30.597185
 21
604.683777
  0
LINE
  8
LC-003-002-----0
 62
     1
  6
CONTINUOUS
 10
21.181087
 20
621.683777
 11
24.481087
 21
621.683777
  0
LINE
  8
LC-003-002-----0
 62
     1
  6
CONTINUOUS
 10
24.981087
 20
604.683777
 11
30.597185
 21
604.683777
  0
CIRCLE
  8
LC-003-002-----0
 62
     1
  6
CONTINUOUS
 10
-4.405663
 20
618.207275
 40
0.750000
  0
CIRCLE
  8
LC-003-002-----0
 62
     1
  6
CONTINUOUS
 10
-2.996124
 20
617.694214
 40
0.750000
  0
CIRCLE
  8
LC-003-002-----0
 62
     1
  6
CONTINUOUS
 10
10.481087
 20
617.433777
 40
0.750000
  0
LINE
  8
LC-003-002-----0
 62
     1
  6
CONTINUOUS
 10
19.981087
 20
623.983765
 11
21.181087
 21
623.983765
  0
CIRCLE
  8
LC-003-002-----0
 62
     1
  6
CONTINUOUS
 10
11.981087
 20
617.433777
 40
0.750000
  0
LINE
  8
LC-003-002-----0
 62
     1
  6
CONTINUOUS
 10
19.981087
 20
595.983765
 11
21.181087
 21
595.983765
  0
CIRCLE
  8
LC-003-002-----0
 62
     1
  6
CONTINUOUS
 10
13.481087
 20
617.433777
 40
0.750000
  0
CIRCLE
  8
LC-003-002-----0
 62
     1
  6
CONTINUOUS
 10
14.981087
 20
617.433777
 40
0.750000
  0
LINE
  8
LC-003-002-----0
 62
     1
  6
CONTINUOUS
 10
19.981087
 20
621.183777
 11
21.181087
 21
621.183777
  0
CIRCLE
  8
LC-003-002-----0
 62
     1
  6
CONTINUOUS
 10
16.481087
 20
617.433777
 40
0.750000
  0
CIRCLE
  8
LC-003-002-----0
 62
     1
  6
CONTINUOUS
 10
17.981087
 20
617.433777
 40
0.750000
  0
CIRCLE
  8
LC-003-002-----0
 62
     1
  6
CONTINUOUS
 10
19.481087
 20
617.433777
 40
0.750000
  0
CIRCLE
  8
LC-003-002-----0
 62
     1
  6
CONTINUOUS
 10
8.981087
 20
617.433777
 40
0.750000
  0
CIRCLE
  8
LC-003-002-----0
 62
     1
  6
CONTINUOUS
 10
7.481087
 20
617.433777
 40
0.750000
  0
CIRCLE
  8
LC-003-002-----0
 62
     1
  6
CONTINUOUS
 10
5.981087
 20
617.433777
 40
0.750000
  0
CIRCLE
  8
LC-003-002-----0
 62
     1
  6
CONTINUOUS
 10
4.481087
 20
617.433777
 40
0.750000
  0
CIRCLE
  8
LC-003-002-----0
 62
     1
  6
CONTINUOUS
 10
2.981087
 20
617.433777
 40
0.750000
  0
CIRCLE
  8
LC-003-002-----0
 62
     1
  6
CONTINUOUS
 10
1.481087
 20
617.433777
 40
0.750000
  0
CIRCLE
  8
LC-003-002-----0
 62
     1
  6
CONTINUOUS
 10
-0.018913
 20
617.433777
 40
0.750000
  0
CIRCLE
  8
LC-003-002-----0
 62
     1
  6
CONTINUOUS
 10
-1.518913
 20
617.433777
 40
0.750000
  0
LINE
  8
LC-003-002-----0
 62
     1
  6
CONTINUOUS
 10
-2.148238
 20
618.183777
 11
20.110413
 21
618.183777
  0
LINE
  8
LC-003-002-----0
 62
     1
  6
CONTINUOUS
 10
-4.149148
 20
618.912048
 11
-2.148238
 21
618.183777
  0
LINE
  8
LC-003-002-----0
 62
     1
  6
CONTINUOUS
 10
19.981087
 20
621.183777
 11
19.981087
 21
623.983765
  0
CIRCLE
  8
LC-003-002-----0
 62
     1
  6
CONTINUOUS
 10
22.367838
 20
618.207275
 40
0.750000
  0
LINE
  8
LC-003-002-----0
 62
     1
  6
CONTINUOUS
 10
-4.662179
 20
617.502502
 11
-2.412728
 21
616.683777
  0
LINE
  8
LC-003-002-----0
 62
     1
  6
CONTINUOUS
 10
20.110413
 20
618.183777
 11
22.111322
 21
618.912048
  0
LINE
  8
LC-003-002-----0
 62
     1
  6
CONTINUOUS
 10
20.374903
 20
616.683777
 11
22.624353
 21
617.502502
  0
LINE
  8
LC-003-002-----0
 62
     1
  6
CONTINUOUS
 10
23.117838
 20
618.207275
 11
24.044430
 21
618.207275
  0
LINE
  8
LC-003-002-----0
 62
     1
  6
CONTINUOUS
 10
24.044430
 20
618.207275
 11
24.044430
 21
616.683777
  0
LINE
  8
LC-003-002-----0
 62
     1
  6
CONTINUOUS
 10
-7.018913
 20
616.683777
 11
-6.082255
 21
616.683777
  0
ARC
  8
LC-003-002-----0
 62
     1
  6
CONTINUOUS
 10
-96.535919
 20
611.383789
 40
12.600000
 50
298.178640
 51
241.821362
  0
LINE
  8
LC-003-002-----0
 62
     1
  6
CONTINUOUS
 10
-0.818913
 20
621.183777
 11
-2.018913
 21
621.183777
  0
LINE
  8
LC-003-002-----0
 62
     1
  6
CONTINUOUS
 10
-5.155663
 20
618.207275
 11
-6.082255
 21
618.207275
  0
LINE
  8
LC-003-002-----0
 62
     1
  6
CONTINUOUS
 10
-6.082255
 20
618.207275
 11
-6.082255
 21
616.683777
  0
LINE
  8
LC-003-002-----0
 62
     1
  6
CONTINUOUS
 10
-102.485916
 20
600.277100
 11
-101.804070
 21
598.024841
  0
LINE
  8
LC-003-002-----0
 62
     1
  6
CONTINUOUS
 10
-100.187859
 20
596.570557
 11
-97.235916
 21
596.007141
  0
LINE
  8
LC-003-002-----0
 62
     1
  6
CONTINUOUS
 10
-95.835915
 20
596.007141
 11
-92.883972
 21
596.570557
  0
LINE
  8
LC-003-002-----0
 62
     1
  6
CONTINUOUS
 10
-90.585915
 20
600.277100
 11
-91.267761
 21
598.024841
  0
CIRCLE
  8
LC-003-002-----0
 62
     1
  6
CONTINUOUS
 10
-93.835915
 20
598.107117
 40
1.000000
  0
CIRCLE
  8
LC-003-002-----0
 62
     1
  6
CONTINUOUS
 10
-99.235916
 20
598.107117
 40
1.000000
  0
ARC
  8
LC-003-002-----0
 62
     1
  6
CONTINUOUS
 10
-99.794151
 20
598.633301
 40
2.100000
 50
196.842927
 51
259.194310
  0
ARC
  8
LC-003-002-----0
 62
     1
  6
CONTINUOUS
 10
-93.277679
 20
598.633301
 40
2.100000
 50
280.805691
 51
343.157069
  0
LINE
  8
LC-003-002-----0
 62
     1
  6
CONTINUOUS
 10
-95.835915
 20
599.706055
 11
-95.835915
 21
596.007141
  0
LINE
  8
LC-003-002-----0
 62
     1
  6
CONTINUOUS
 10
-97.235916
 20
599.706055
 11
-97.235916
 21
596.007141
  0
LINE
  8
LC-003-002-----0
 62
     1
  6
CONTINUOUS
 10
-0.818913
 20
621.683777
 11
19.981087
 21
621.683777
  0
ENDSEC
  0
EOF
