  0
SECTION
  2
HEADER
  9
$LIMMIN
 10
-122.535919
 20
408.300751
  9
$LIMMAX
 10
48.767406
 20
468.300751
  9
$EXTMIN
 10
-122.535919
 20
408.300751
  9
$EXTMAX
 10
48.767406
 20
468.300751
  0
ENDSEC
  0
SECTION
  2
TABLES
  0
TABLE
  2
LTYPE
 70
     3
  0
LTYPE
  2
CONTINUOUS
 70
    64
  3
Ausgezogene Linie
 72
    65
 73
     0
 40
0.0
  0
LTYPE
  2
DASHED
 70
    64
  3
__ __ __ __ __ __ __ __ __ __ __ __ __ __ __
 72
    65
 73
     2
 40
0.75
 49
0.5
 49
-0.25
  0
LTYPE
  2
CENTER
 70
    64
  3
____ _ ____ _ ____ _ ____ _ ____ _ ____ _ ____
 72
    65
 73
     4
 40
2.0
 49
1.25
 49
-0.25
 49
0.25
 49
-0.25
  0
ENDTAB
  0
TABLE
  2
LAYER
 70
     5
  0
LAYER
  2
LC-INFO-1-1-MM-A0-0
 70
    64
 62
     7
  6
CONTINUOUS
  0
LAYER
  2
LC-003-002-----0
 70
    64
 62
     7
  6
CONTINUOUS
  0
LAYER
  2
LC-002-021-SLN-3
 70
    64
 62
     7
  6
CONTINUOUS
  0
LAYER
  2
LC-001-150-----0
 70
    64
 62
     7
  6
CONTINUOUS
  0
LAYER
  2
LC-008-003-----0
 70
    64
 62
     7
  6
CONTINUOUS
  0
ENDTAB
  0
TABLE
  2
STYLE
 70
     1
  0
STYLE
  2
TXT8
 70
    64
 40
0.0
 41
1.0
 50
0.0
 71
     0
 42
3.500000
  3
TXT8
  4

  0
ENDTAB
  0
ENDSEC
  0
SECTION
  2
BLOCKS
  0
ENDSEC
  0
SECTION
  2
ENTITIES
  0
LINE
  8
LC-008-003-----0
 62
     2
  6
CONTINUOUS
 10
3.859263
 20
450.750763
 11
4.181087
 21
451.072571
  0
LINE
  8
LC-008-003-----0
 62
     2
  6
CONTINUOUS
 10
3.152156
 20
450.750763
 11
4.181087
 21
451.779694
  0
LINE
  8
LC-008-003-----0
 62
     2
  6
CONTINUOUS
 10
2.981087
 20
451.286774
 11
4.181087
 21
452.486786
  0
LINE
  8
LC-008-003-----0
 62
     2
  6
CONTINUOUS
 10
2.981087
 20
451.993896
 11
4.181087
 21
453.193878
  0
LINE
  8
LC-008-003-----0
 62
     2
  6
CONTINUOUS
 10
2.981087
 20
452.700989
 11
4.130836
 21
453.850739
  0
LINE
  8
LC-008-003-----0
 62
     2
  6
CONTINUOUS
 10
2.981087
 20
453.408112
 11
3.423729
 21
453.850739
  0
LINE
  8
LC-008-003-----0
 62
     2
  6
CONTINUOUS
 10
27.900894
 20
450.750763
 11
28.181087
 21
451.030945
  0
LINE
  8
LC-008-003-----0
 62
     2
  6
CONTINUOUS
 10
27.193787
 20
450.750763
 11
28.181087
 21
451.738037
  0
LINE
  8
LC-008-003-----0
 62
     2
  6
CONTINUOUS
 10
26.981087
 20
451.245148
 11
28.181087
 21
452.445160
  0
LINE
  8
LC-008-003-----0
 62
     2
  6
CONTINUOUS
 10
26.981087
 20
451.952271
 11
28.181087
 21
453.152252
  0
LINE
  8
LC-008-003-----0
 62
     2
  6
CONTINUOUS
 10
26.981087
 20
452.659363
 11
28.172466
 21
453.850739
  0
LINE
  8
LC-008-003-----0
 62
     2
  6
CONTINUOUS
 10
26.981087
 20
453.366486
 11
27.465361
 21
453.850739
  0
LINE
  8
LC-008-003-----0
 62
     2
  6
CONTINUOUS
 10
31.481087
 20
447.259888
 11
32.981087
 21
448.759888
  0
LINE
  8
LC-008-003-----0
 62
     2
  6
CONTINUOUS
 10
30.868542
 20
449.475769
 11
32.660309
 21
451.267517
  0
LINE
  8
LC-008-003-----0
 62
     2
  6
CONTINUOUS
 10
28.129148
 20
449.564789
 11
29.865107
 21
451.300751
  0
LINE
  8
LC-008-003-----0
 62
     2
  6
CONTINUOUS
 10
24.536680
 20
448.800751
 11
26.981087
 21
451.245148
  0
LINE
  8
LC-008-003-----0
 62
     2
  6
CONTINUOUS
 10
21.708254
 20
448.800751
 11
24.208254
 21
451.300751
  0
LINE
  8
LC-008-003-----0
 62
     2
  6
CONTINUOUS
 10
18.879826
 20
448.800751
 11
21.379826
 21
451.300751
  0
LINE
  8
LC-008-003-----0
 62
     2
  6
CONTINUOUS
 10
16.051399
 20
448.800751
 11
18.551399
 21
451.300751
  0
LINE
  8
LC-008-003-----0
 62
     2
  6
CONTINUOUS
 10
13.222972
 20
448.800751
 11
15.722972
 21
451.300751
  0
LINE
  8
LC-008-003-----0
 62
     2
  6
CONTINUOUS
 10
10.394545
 20
448.800751
 11
12.894545
 21
451.300751
  0
LINE
  8
LC-008-003-----0
 62
     2
  6
CONTINUOUS
 10
7.566117
 20
448.800751
 11
10.066117
 21
451.300751
  0
LINE
  8
LC-008-003-----0
 62
     2
  6
CONTINUOUS
 10
4.737690
 20
448.800751
 11
7.237690
 21
451.300751
  0
LINE
  8
LC-008-003-----0
 62
     2
  6
CONTINUOUS
 10
2.449080
 20
449.340576
 11
3.859263
 21
450.750763
  0
LINE
  8
LC-008-003-----0
 62
     2
  6
CONTINUOUS
 10
4.181087
 20
451.072571
 11
4.409263
 21
451.300751
  0
LINE
  8
LC-008-003-----0
 62
     2
  6
CONTINUOUS
 10
-3.018913
 20
446.700989
 11
-1.518913
 21
448.200989
  0
LINE
  8
LC-008-003-----0
 62
     2
  6
CONTINUOUS
 10
0.356058
 20
450.075958
 11
1.580836
 21
451.300751
  0
LINE
  8
LC-008-003-----0
 62
     2
  6
CONTINUOUS
 10
-3.018913
 20
449.529419
 11
-1.247591
 21
451.300751
  0
LINE
  8
LC-008-003-----0
 62
     2
  6
CONTINUOUS
 10
26.981087
 20
453.851532
 11
24.531862
 21
456.300751
  0
LINE
  8
LC-008-003-----0
 62
     2
  6
CONTINUOUS
 10
26.703436
 20
451.300751
 11
21.703436
 21
456.300751
  0
LINE
  8
LC-008-003-----0
 62
     2
  6
CONTINUOUS
 10
23.875008
 20
451.300751
 11
18.875008
 21
456.300751
  0
LINE
  8
LC-008-003-----0
 62
     2
  6
CONTINUOUS
 10
21.046581
 20
451.300751
 11
16.046581
 21
456.300751
  0
LINE
  8
LC-008-003-----0
 62
     2
  6
CONTINUOUS
 10
10.981087
 20
461.366241
 11
9.046581
 21
463.300751
  0
LINE
  8
LC-008-003-----0
 62
     2
  6
CONTINUOUS
 10
18.218155
 20
451.300751
 11
13.218153
 21
456.300751
  0
LINE
  8
LC-008-003-----0
 62
     2
  6
CONTINUOUS
 10
10.981087
 20
458.537811
 11
6.218154
 21
463.300751
  0
LINE
  8
LC-008-003-----0
 62
     2
  6
CONTINUOUS
 10
15.389727
 20
451.300751
 11
3.389728
 21
463.300751
  0
LINE
  8
LC-008-003-----0
 62
     2
  6
CONTINUOUS
 10
12.561300
 20
451.300751
 11
2.981087
 21
460.880951
  0
LINE
  8
LC-008-003-----0
 62
     2
  6
CONTINUOUS
 10
9.732872
 20
451.300751
 11
2.981087
 21
458.052521
  0
LINE
  8
LC-008-003-----0
 62
     2
  6
CONTINUOUS
 10
6.904445
 20
451.300751
 11
4.181087
 21
454.024109
  0
LINE
  8
LC-001-150-----0
 62
     2
  6
DASHED
 10
2.981087
 20
418.050751
 11
10.981087
 21
418.050751
  0
LINE
  8
LC-003-002-----0
 62
     1
  6
CONTINUOUS
 10
-117.535919
 20
455.800751
 11
-117.535919
 21
420.800751
  0
LINE
  8
LC-003-002-----0
 62
     1
  6
CONTINUOUS
 10
-110.035919
 20
413.300751
 11
-75.035919
 21
413.300751
  0
LINE
  8
LC-003-002-----0
 62
     1
  6
CONTINUOUS
 10
-67.535919
 20
420.800751
 11
-67.535919
 21
455.800751
  0
LINE
  8
LC-003-002-----0
 62
     1
  6
CONTINUOUS
 10
-110.035919
 20
463.300751
 11
-75.035919
 21
463.300751
  0
LINE
  8
LC-002-021-SLN-3
 62
     2
  6
CENTER
 10
-102.285919
 20
455.800751
 11
-117.785919
 21
455.800751
  0
LINE
  8
LC-002-021-SLN-3
 62
     2
  6
CENTER
 10
-110.035919
 20
463.550751
 11
-110.035919
 21
448.050751
  0
LINE
  8
LC-002-021-SLN-3
 62
     2
  6
CENTER
 10
-67.285919
 20
455.800751
 11
-82.785919
 21
455.800751
  0
LINE
  8
LC-002-021-SLN-3
 62
     2
  6
CENTER
 10
-75.035919
 20
463.550751
 11
-75.035919
 21
448.050751
  0
LINE
  8
LC-003-002-----0
 62
     1
  6
CONTINUOUS
 10
4.181087
 20
453.850739
 11
4.181087
 21
455.800751
  0
CIRCLE
  8
LC-003-002-----0
 62
     1
  6
CONTINUOUS
 10
-110.035919
 20
455.800751
 40
2.750000
  0
CIRCLE
  8
LC-003-002-----0
 62
     1
  6
CONTINUOUS
 10
-75.035919
 20
455.800751
 40
2.750000
  0
CIRCLE
  8
LC-003-002-----0
 62
     1
  6
CONTINUOUS
 10
-110.035919
 20
420.800751
 40
2.750000
  0
CIRCLE
  8
LC-003-002-----0
 62
     1
  6
CONTINUOUS
 10
-75.035919
 20
420.800751
 40
2.750000
  0
LINE
  8
LC-002-021-SLN-3
 62
     2
  6
CENTER
 10
-67.285919
 20
420.800751
 11
-82.785919
 21
420.800751
  0
LINE
  8
LC-002-021-SLN-3
 62
     2
  6
CENTER
 10
-75.035919
 20
428.550751
 11
-75.035919
 21
413.050751
  0
LINE
  8
LC-002-021-SLN-3
 62
     2
  6
CENTER
 10
-102.285919
 20
420.800751
 11
-117.785919
 21
420.800751
  0
LINE
  8
LC-002-021-SLN-3
 62
     2
  6
CENTER
 10
-110.035919
 20
428.550751
 11
-110.035919
 21
413.050751
  0
LINE
  8
LC-002-021-SLN-3
 62
     2
  6
CENTER
 10
-92.535919
 20
468.300751
 11
-92.535919
 21
408.300751
  0
LINE
  8
LC-002-021-SLN-3
 62
     2
  6
CENTER
 10
-62.535915
 20
438.300751
 11
-122.535919
 21
438.300751
  0
ARC
  8
LC-003-002-----0
 62
     1
  6
CONTINUOUS
 10
-110.035919
 20
455.800751
 40
7.500000
 50
90.000003
 51
180.000009
  0
LINE
  8
LC-003-002-----0
 62
     1
  6
CONTINUOUS
 10
-9.957837
 20
446.300751
 11
-3.018913
 21
446.300751
  0
LINE
  8
LC-003-002-----0
 62
     1
  6
CONTINUOUS
 10
-3.018913
 20
446.300751
 11
32.981087
 21
446.300751
  0
LINE
  8
LC-003-002-----0
 62
     1
  6
CONTINUOUS
 10
32.981087
 20
446.300751
 11
42.435097
 21
446.300751
  0
ARC
  8
LC-003-002-----0
 62
     1
  6
CONTINUOUS
 10
-75.035919
 20
455.800751
 40
7.500000
 50
0.000000
 51
90.000003
  0
ARC
  8
LC-003-002-----0
 62
     1
  6
CONTINUOUS
 10
-110.035919
 20
420.800751
 40
7.500000
 50
180.000009
 51
269.999997
  0
ARC
  8
LC-003-002-----0
 62
     1
  6
CONTINUOUS
 10
-75.035919
 20
420.800751
 40
7.500000
 50
269.999997
 51
0.000000
  0
CIRCLE
  8
LC-003-002-----0
 62
     1
  6
CONTINUOUS
 10
-92.535919
 20
438.300751
 40
18.000000
  0
CIRCLE
  8
LC-003-002-----0
 62
     1
  6
CONTINUOUS
 10
-92.535919
 20
438.300751
 40
13.000000
  0
CIRCLE
  8
LC-003-002-----0
 62
     1
  6
CONTINUOUS
 10
-92.535919
 20
438.300751
 40
8.000000
  0
LINE
  8
LC-003-002-----0
 62
     1
  6
CONTINUOUS
 10
2.981087
 20
413.300751
 11
10.981087
 21
413.300751
  0
LINE
  8
LC-003-002-----0
 62
     1
  6
CONTINUOUS
 10
2.981087
 20
463.300751
 11
10.981087
 21
463.300751
  0
LINE
  8
LC-003-002-----0
 62
     1
  6
CONTINUOUS
 10
-10.690951
 20
430.300751
 11
-3.018913
 21
430.300751
  0
LINE
  8
LC-003-002-----0
 62
     1
  6
CONTINUOUS
 10
-3.018913
 20
450.800751
 11
-3.018913
 21
446.300751
  0
LINE
  8
LC-003-002-----0
 62
     1
  6
CONTINUOUS
 10
32.981087
 20
425.800751
 11
32.981087
 21
438.300751
  0
LINE
  8
LC-003-002-----0
 62
     1
  6
CONTINUOUS
 10
32.981087
 20
430.300751
 11
45.364391
 21
430.300751
  0
LINE
  8
LC-003-002-----0
 62
     1
  6
CONTINUOUS
 10
26.981087
 20
420.300751
 11
26.981087
 21
438.300751
  0
LINE
  8
LC-003-002-----0
 62
     1
  6
CONTINUOUS
 10
2.981087
 20
413.300751
 11
2.981087
 21
438.300751
  0
LINE
  8
LC-003-002-----0
 62
     1
  6
CONTINUOUS
 10
10.981087
 20
413.300751
 11
10.981087
 21
438.300751
  0
LINE
  8
LC-002-021-SLN-3
 62
     2
  6
CENTER
 10
48.767406
 20
438.300751
 11
-15.852371
 21
438.300751
  0
LINE
  8
LC-008-003-----0
 62
     2
  6
CONTINUOUS
 10
-9.957837
 20
446.300751
 11
-11.441391
 21
442.436646
  0
LINE
  8
LC-008-003-----0
 62
     2
  6
CONTINUOUS
 10
-11.441391
 20
442.436646
 11
-10.721948
 21
437.384949
  0
LINE
  8
LC-008-003-----0
 62
     2
  6
CONTINUOUS
 10
-10.721948
 20
437.384949
 11
-11.531321
 21
433.265564
  0
LINE
  8
LC-008-003-----0
 62
     2
  6
CONTINUOUS
 10
-11.531321
 20
433.265564
 11
-10.690951
 21
430.300751
  0
LINE
  8
LC-008-003-----0
 62
     2
  6
CONTINUOUS
 10
42.435097
 20
446.300751
 11
44.170128
 21
441.105957
  0
LINE
  8
LC-008-003-----0
 62
     2
  6
CONTINUOUS
 10
44.170128
 20
441.105957
 11
43.540615
 21
436.720978
  0
LINE
  8
LC-008-003-----0
 62
     2
  6
CONTINUOUS
 10
43.540615
 20
436.720978
 11
45.788872
 21
431.470062
  0
LINE
  8
LC-008-003-----0
 62
     2
  6
CONTINUOUS
 10
45.788872
 20
431.470062
 11
45.364391
 21
430.300751
  0
LINE
  8
LC-003-002-----0
 62
     1
  6
CONTINUOUS
 10
-3.018913
 20
438.300751
 11
-3.018913
 21
425.800751
  0
LINE
  8
LC-003-002-----0
 62
     1
  6
CONTINUOUS
 10
2.981087
 20
450.750763
 11
2.981087
 21
463.300751
  0
LINE
  8
LC-003-002-----0
 62
     1
  6
CONTINUOUS
 10
10.981087
 20
457.300751
 11
10.981087
 21
463.300751
  0
LINE
  8
LC-003-002-----0
 62
     1
  6
CONTINUOUS
 10
26.981087
 20
451.300751
 11
26.981087
 21
456.300751
  0
LINE
  8
LC-003-002-----0
 62
     1
  6
CONTINUOUS
 10
32.981087
 20
446.300751
 11
32.981087
 21
450.800751
  0
LINE
  8
LC-003-002-----0
 62
     1
  6
CONTINUOUS
 10
-2.518913
 20
425.300751
 11
2.981087
 21
425.300751
  0
LINE
  8
LC-003-002-----0
 62
     1
  6
CONTINUOUS
 10
28.181087
 20
425.300751
 11
32.481087
 21
425.300751
  0
LINE
  8
LC-002-021-SLN-3
 62
     2
  6
CENTER
 10
15.981087
 20
420.800751
 11
-2.018913
 21
420.800751
  0
LINE
  8
LC-001-150-----0
 62
     2
  6
DASHED
 10
2.981087
 20
423.550751
 11
10.981087
 21
423.550751
  0
LINE
  8
LC-003-002-----0
 62
     1
  6
CONTINUOUS
 10
11.981087
 20
420.300751
 11
26.981087
 21
420.300751
  0
LINE
  8
LC-003-002-----0
 62
     1
  6
CONTINUOUS
 10
11.981087
 20
456.300751
 11
26.981087
 21
456.300751
  0
ARC
  8
LC-003-002-----0
 62
     1
  6
CONTINUOUS
 10
-2.518913
 20
450.800751
 40
0.500000
 50
90.000003
 51
180.000009
  0
ARC
  8
LC-003-002-----0
 62
     1
  6
CONTINUOUS
 10
32.481087
 20
450.800751
 40
0.500000
 50
0.000000
 51
90.000003
  0
ARC
  8
LC-003-002-----0
 62
     1
  6
CONTINUOUS
 10
32.481087
 20
425.800751
 40
0.500000
 50
269.999997
 51
0.000000
  0
ARC
  8
LC-003-002-----0
 62
     1
  6
CONTINUOUS
 10
-2.518913
 20
425.800751
 40
0.500000
 50
180.000009
 51
269.999997
  0
ARC
  8
LC-003-002-----0
 62
     1
  6
CONTINUOUS
 10
11.981087
 20
419.300751
 40
1.000000
 50
90.000003
 51
180.000009
  0
LINE
  8
LC-003-002-----0
 62
     1
  6
CONTINUOUS
 10
-2.518913
 20
451.300751
 11
2.981087
 21
451.300751
  0
ARC
  8
LC-003-002-----0
 62
     1
  6
CONTINUOUS
 10
11.981087
 20
457.300751
 40
1.000000
 50
180.000009
 51
269.999997
  0
LINE
  8
LC-003-002-----0
 62
     1
  6
CONTINUOUS
 10
28.181087
 20
451.300751
 11
32.481087
 21
451.300751
  0
ARC
  8
LC-003-002-----0
 62
     1
  6
CONTINUOUS
 10
-92.535919
 20
439.075745
 40
14.775000
 50
295.668531
 51
244.331470
  0
LINE
  8
LC-003-002-----0
 62
     1
  6
CONTINUOUS
 10
28.181087
 20
453.850739
 11
28.181087
 21
450.750763
  0
LINE
  8
LC-003-002-----0
 62
     1
  6
CONTINUOUS
 10
28.181087
 20
438.300751
 11
28.181087
 21
421.350739
  0
LINE
  8
LC-003-002-----0
 62
     1
  6
CONTINUOUS
 10
26.981087
 20
421.350739
 11
26.981087
 21
438.300751
  0
LINE
  8
LC-003-002-----0
 62
     1
  6
CONTINUOUS
 10
-98.935913
 20
425.758820
 11
-98.219627
 21
423.479645
  0
LINE
  8
LC-003-002-----0
 62
     1
  6
CONTINUOUS
 10
-96.468994
 20
421.939331
 11
-93.310913
 21
421.374908
  0
LINE
  8
LC-003-002-----0
 62
     1
  6
CONTINUOUS
 10
-91.760918
 20
421.374908
 11
-88.602837
 21
421.939331
  0
LINE
  8
LC-003-002-----0
 62
     1
  6
CONTINUOUS
 10
-86.135918
 20
425.758820
 11
-86.852211
 21
423.479645
  0
CIRCLE
  8
LC-003-002-----0
 62
     1
  6
CONTINUOUS
 10
-89.760918
 20
423.624908
 40
1.000000
  0
LINE
  8
LC-003-002-----0
 62
     1
  6
CONTINUOUS
 10
26.981087
 20
450.750763
 11
26.981087
 21
453.850739
  0
CIRCLE
  8
LC-003-002-----0
 62
     1
  6
CONTINUOUS
 10
-95.310913
 20
423.624908
 40
1.000000
  0
ARC
  8
LC-003-002-----0
 62
     1
  6
CONTINUOUS
 10
-96.073135
 20
424.154236
 40
2.250000
 50
197.446675
 51
259.866729
  0
ARC
  8
LC-003-002-----0
 62
     1
  6
CONTINUOUS
 10
-88.998703
 20
424.154236
 40
2.250000
 50
280.133273
 51
342.553322
  0
LINE
  8
LC-003-002-----0
 62
     1
  6
CONTINUOUS
 10
-91.760918
 20
425.323883
 11
-91.760918
 21
421.374908
  0
LINE
  8
LC-003-002-----0
 62
     1
  6
CONTINUOUS
 10
-93.310913
 20
425.323883
 11
-93.310913
 21
421.374908
  0
LINE
  8
LC-003-002-----0
 62
     1
  6
CONTINUOUS
 10
0.597361
 20
450.014526
 11
3.932213
 21
448.800751
  0
LINE
  8
LC-003-002-----0
 62
     1
  6
CONTINUOUS
 10
-0.257689
 20
447.665314
 11
3.491395
 21
446.300751
  0
LINE
  8
LC-003-002-----0
 62
     1
  6
CONTINUOUS
 10
30.219864
 20
447.665314
 11
26.470779
 21
446.300751
  0
CIRCLE
  8
LC-003-002-----0
 62
     1
  6
CONTINUOUS
 10
14.981087
 20
447.550751
 40
1.250000
  0
CIRCLE
  8
LC-003-002-----0
 62
     1
  6
CONTINUOUS
 10
17.481087
 20
447.550751
 40
1.250000
  0
CIRCLE
  8
LC-003-002-----0
 62
     1
  6
CONTINUOUS
 10
19.981087
 20
447.550751
 40
1.250000
  0
CIRCLE
  8
LC-003-002-----0
 62
     1
  6
CONTINUOUS
 10
22.481087
 20
447.550751
 40
1.250000
  0
CIRCLE
  8
LC-003-002-----0
 62
     1
  6
CONTINUOUS
 10
24.981087
 20
447.550751
 40
1.250000
  0
CIRCLE
  8
LC-003-002-----0
 62
     1
  6
CONTINUOUS
 10
27.443108
 20
447.984863
 40
1.250000
  0
CIRCLE
  8
LC-003-002-----0
 62
     1
  6
CONTINUOUS
 10
29.792337
 20
448.839905
 40
1.250000
  0
CIRCLE
  8
LC-003-002-----0
 62
     1
  6
CONTINUOUS
 10
12.481087
 20
447.550751
 40
1.250000
  0
LINE
  8
LC-003-002-----0
 62
     1
  6
CONTINUOUS
 10
26.981087
 20
453.850739
 11
28.181087
 21
453.850739
  0
CIRCLE
  8
LC-003-002-----0
 62
     1
  6
CONTINUOUS
 10
9.981087
 20
447.550751
 40
1.250000
  0
LINE
  8
LC-003-002-----0
 62
     1
  6
CONTINUOUS
 10
26.981087
 20
421.350739
 11
28.181087
 21
421.350739
  0
CIRCLE
  8
LC-003-002-----0
 62
     1
  6
CONTINUOUS
 10
7.481087
 20
447.550751
 40
1.250000
  0
CIRCLE
  8
LC-003-002-----0
 62
     1
  6
CONTINUOUS
 10
4.981087
 20
447.550751
 40
1.250000
  0
LINE
  8
LC-003-002-----0
 62
     1
  6
CONTINUOUS
 10
26.981087
 20
450.750763
 11
28.181087
 21
450.750763
  0
CIRCLE
  8
LC-003-002-----0
 62
     1
  6
CONTINUOUS
 10
2.519068
 20
447.984863
 40
1.250000
  0
CIRCLE
  8
LC-003-002-----0
 62
     1
  6
CONTINUOUS
 10
0.169836
 20
448.839905
 40
1.250000
  0
LINE
  8
LC-003-002-----0
 62
     1
  6
CONTINUOUS
 10
26.029963
 20
448.800751
 11
29.364813
 21
450.014526
  0
LINE
  8
LC-003-002-----0
 62
     1
  6
CONTINUOUS
 10
26.029963
 20
448.800751
 11
3.932213
 21
448.800751
  0
LINE
  8
LC-003-002-----0
 62
     1
  6
CONTINUOUS
 10
4.181087
 20
451.300751
 11
26.981087
 21
451.300751
  0
LINE
  8
LC-003-002-----0
 62
     1
  6
CONTINUOUS
 10
2.981087
 20
455.800751
 11
4.181087
 21
455.800751
  0
LINE
  8
LC-003-002-----0
 62
     1
  6
CONTINUOUS
 10
2.981087
 20
450.750763
 11
2.981087
 21
453.850739
  0
LINE
  8
LC-003-002-----0
 62
     1
  6
CONTINUOUS
 10
31.042337
 20
448.839905
 11
31.481087
 21
448.839905
  0
LINE
  8
LC-003-002-----0
 62
     1
  6
CONTINUOUS
 10
-1.067673
 20
449.016174
 11
-1.518913
 21
449.016174
  0
LINE
  8
LC-003-002-----0
 62
     1
  6
CONTINUOUS
 10
-1.518913
 20
446.300751
 11
-1.518913
 21
449.016174
  0
LINE
  8
LC-003-002-----0
 62
     1
  6
CONTINUOUS
 10
31.481087
 20
446.300751
 11
31.481087
 21
448.839905
  0
LINE
  8
LC-003-002-----0
 62
     1
  6
CONTINUOUS
 10
4.181087
 20
450.750763
 11
4.181087
 21
453.850739
  0
LINE
  8
LC-003-002-----0
 62
     1
  6
CONTINUOUS
 10
2.981087
 20
453.850739
 11
4.181087
 21
453.850739
  0
LINE
  8
LC-003-002-----0
 62
     1
  6
CONTINUOUS
 10
2.981087
 20
450.750763
 11
4.181087
 21
450.750763
  0
ENDSEC
  0
EOF
