  0
SECTION
  2
HEADER
  9
$LIMMIN
 10
-146.102921
 20
0.000000
  9
$LIMMAX
 10
60.988235
 20
90.358315
  9
$EXTMIN
 10
-146.102921
 20
0.000000
  9
$EXTMAX
 10
60.988235
 20
90.358315
  0
ENDSEC
  0
SECTION
  2
TABLES
  0
TABLE
  2
LTYPE
 70
     3
  0
LTYPE
  2
CONTINUOUS
 70
    64
  3
Ausgezogene Linie
 72
    65
 73
     0
 40
0.0
  0
LTYPE
  2
DASHED
 70
    64
  3
__ __ __ __ __ __ __ __ __ __ __ __ __ __ __
 72
    65
 73
     2
 40
0.75
 49
0.5
 49
-0.25
  0
LTYPE
  2
CENTER
 70
    64
  3
____ _ ____ _ ____ _ ____ _ ____ _ ____ _ ____
 72
    65
 73
     4
 40
2.0
 49
1.25
 49
-0.25
 49
0.25
 49
-0.25
  0
ENDTAB
  0
TABLE
  2
LAYER
 70
     5
  0
LAYER
  2
LC-INFO-1-1-MM-A0-0
 70
    64
 62
     7
  6
CONTINUOUS
  0
LAYER
  2
LC-003-002-----0
 70
    64
 62
     7
  6
CONTINUOUS
  0
LAYER
  2
LC-002-021-SLN-3
 70
    64
 62
     7
  6
CONTINUOUS
  0
LAYER
  2
LC-001-150-----0
 70
    64
 62
     7
  6
CONTINUOUS
  0
LAYER
  2
LC-008-003-----0
 70
    64
 62
     7
  6
CONTINUOUS
  0
ENDTAB
  0
TABLE
  2
STYLE
 70
     1
  0
STYLE
  2
TXT8
 70
    64
 40
0.0
 41
1.0
 50
0.0
 71
     0
 42
3.500000
  3
TXT8
  4

  0
ENDTAB
  0
ENDSEC
  0
SECTION
  2
BLOCKS
  0
ENDSEC
  0
SECTION
  2
ENTITIES
  0
LINE
  8
LC-008-003-----0
 62
     2
  6
CONTINUOUS
 10
-2.895255
 20
67.108315
 11
-2.862580
 21
67.140991
  0
LINE
  8
LC-008-003-----0
 62
     2
  6
CONTINUOUS
 10
-3.602361
 20
67.108315
 11
-2.862580
 21
67.848099
  0
LINE
  8
LC-008-003-----0
 62
     2
  6
CONTINUOUS
 10
-4.309468
 20
67.108315
 11
-2.862580
 21
68.555206
  0
LINE
  8
LC-008-003-----0
 62
     2
  6
CONTINUOUS
 10
-4.612580
 20
67.512314
 11
-2.862580
 21
69.262314
  0
LINE
  8
LC-008-003-----0
 62
     2
  6
CONTINUOUS
 10
-4.612580
 20
68.219421
 11
-2.862580
 21
69.969421
  0
LINE
  8
LC-008-003-----0
 62
     2
  6
CONTINUOUS
 10
-4.612580
 20
68.926529
 11
-2.862580
 21
70.676529
  0
LINE
  8
LC-008-003-----0
 62
     2
  6
CONTINUOUS
 10
-4.612580
 20
69.633629
 11
-2.862580
 21
71.383629
  0
LINE
  8
LC-008-003-----0
 62
     2
  6
CONTINUOUS
 10
-4.612580
 20
70.340736
 11
-3.445002
 21
71.508316
  0
LINE
  8
LC-008-003-----0
 62
     2
  6
CONTINUOUS
 10
-4.612580
 20
71.047844
 11
-4.152109
 21
71.508316
  0
LINE
  8
LC-008-003-----0
 62
     2
  6
CONTINUOUS
 10
38.824047
 20
67.108315
 11
39.137421
 21
67.421692
  0
LINE
  8
LC-008-003-----0
 62
     2
  6
CONTINUOUS
 10
38.116940
 20
67.108315
 11
39.137421
 21
68.128799
  0
LINE
  8
LC-008-003-----0
 62
     2
  6
CONTINUOUS
 10
37.409832
 20
67.108315
 11
39.137421
 21
68.835907
  0
LINE
  8
LC-008-003-----0
 62
     2
  6
CONTINUOUS
 10
37.387421
 20
67.793015
 11
39.137421
 21
69.543015
  0
LINE
  8
LC-008-003-----0
 62
     2
  6
CONTINUOUS
 10
37.387421
 20
68.500122
 11
39.137421
 21
70.250122
  0
LINE
  8
LC-008-003-----0
 62
     2
  6
CONTINUOUS
 10
37.387421
 20
69.207230
 11
39.137421
 21
70.957230
  0
LINE
  8
LC-008-003-----0
 62
     2
  6
CONTINUOUS
 10
37.387421
 20
69.914330
 11
38.981403
 21
71.508316
  0
LINE
  8
LC-008-003-----0
 62
     2
  6
CONTINUOUS
 10
37.387421
 20
70.621437
 11
38.274300
 21
71.508316
  0
LINE
  8
LC-008-003-----0
 62
     2
  6
CONTINUOUS
 10
37.387421
 20
71.328545
 11
37.567192
 21
71.508316
  0
LINE
  8
LC-008-003-----0
 62
     2
  6
CONTINUOUS
 10
43.714943
 20
60.685505
 11
45.387421
 21
62.357983
  0
LINE
  8
LC-008-003-----0
 62
     2
  6
CONTINUOUS
 10
42.387421
 20
62.186409
 11
45.387421
 21
65.186409
  0
LINE
  8
LC-008-003-----0
 62
     2
  6
CONTINUOUS
 10
41.872002
 20
64.499420
 11
45.105824
 21
67.733238
  0
LINE
  8
LC-008-003-----0
 62
     2
  6
CONTINUOUS
 10
40.165695
 20
65.621544
 11
42.902473
 21
68.358315
  0
LINE
  8
LC-008-003-----0
 62
     2
  6
CONTINUOUS
 10
37.951218
 20
66.235489
 11
38.824047
 21
67.108315
  0
LINE
  8
LC-008-003-----0
 62
     2
  6
CONTINUOUS
 10
39.137421
 20
67.421692
 11
40.074047
 21
68.358315
  0
LINE
  8
LC-008-003-----0
 62
     2
  6
CONTINUOUS
 10
33.504211
 20
64.616913
 11
37.245617
 21
68.358315
  0
LINE
  8
LC-008-003-----0
 62
     2
  6
CONTINUOUS
 10
30.494381
 20
64.435509
 11
34.417191
 21
68.358315
  0
LINE
  8
LC-008-003-----0
 62
     2
  6
CONTINUOUS
 10
27.665955
 20
64.435509
 11
31.588764
 21
68.358315
  0
LINE
  8
LC-008-003-----0
 62
     2
  6
CONTINUOUS
 10
24.837526
 20
64.435509
 11
28.760338
 21
68.358315
  0
LINE
  8
LC-008-003-----0
 62
     2
  6
CONTINUOUS
 10
22.009100
 20
64.435509
 11
25.931910
 21
68.358315
  0
LINE
  8
LC-008-003-----0
 62
     2
  6
CONTINUOUS
 10
19.180672
 20
64.435509
 11
23.103483
 21
68.358315
  0
LINE
  8
LC-008-003-----0
 62
     2
  6
CONTINUOUS
 10
16.352245
 20
64.435509
 11
20.275057
 21
68.358315
  0
LINE
  8
LC-008-003-----0
 62
     2
  6
CONTINUOUS
 10
13.523818
 20
64.435509
 11
17.446629
 21
68.358315
  0
LINE
  8
LC-008-003-----0
 62
     2
  6
CONTINUOUS
 10
10.695391
 20
64.435509
 11
14.618201
 21
68.358315
  0
LINE
  8
LC-008-003-----0
 62
     2
  6
CONTINUOUS
 10
7.866964
 20
64.435509
 11
11.789774
 21
68.358315
  0
LINE
  8
LC-008-003-----0
 62
     2
  6
CONTINUOUS
 10
5.038537
 20
64.435509
 11
8.961347
 21
68.358315
  0
LINE
  8
LC-008-003-----0
 62
     2
  6
CONTINUOUS
 10
2.210110
 20
64.435509
 11
6.132920
 21
68.358315
  0
LINE
  8
LC-008-003-----0
 62
     2
  6
CONTINUOUS
 10
-0.514955
 20
64.538872
 11
3.304493
 21
68.358315
  0
LINE
  8
LC-008-003-----0
 62
     2
  6
CONTINUOUS
 10
-2.588627
 20
65.293625
 11
0.476066
 21
68.358315
  0
LINE
  8
LC-008-003-----0
 62
     2
  6
CONTINUOUS
 10
-10.025172
 20
60.685505
 11
-9.612580
 21
61.098099
  0
LINE
  8
LC-008-003-----0
 62
     2
  6
CONTINUOUS
 10
-4.662299
 20
66.048378
 11
-3.602361
 21
67.108315
  0
LINE
  8
LC-008-003-----0
 62
     2
  6
CONTINUOUS
 10
-2.862580
 20
67.848099
 11
-2.352361
 21
68.358315
  0
LINE
  8
LC-008-003-----0
 62
     2
  6
CONTINUOUS
 10
-12.612580
 20
60.926525
 11
-9.612580
 21
63.926525
  0
LINE
  8
LC-008-003-----0
 62
     2
  6
CONTINUOUS
 10
-9.039686
 20
64.499420
 11
-5.180788
 21
68.358315
  0
LINE
  8
LC-008-003-----0
 62
     2
  6
CONTINUOUS
 10
-12.612580
 20
63.754951
 11
-8.009216
 21
68.358315
  0
LINE
  8
LC-008-003-----0
 62
     2
  6
CONTINUOUS
 10
-12.612580
 20
66.583382
 11
-10.837643
 21
68.358315
  0
LINE
  8
LC-008-003-----0
 62
     2
  6
CONTINUOUS
 10
37.387421
 20
72.921234
 11
35.123150
 21
75.185509
  0
LINE
  8
LC-008-003-----0
 62
     2
  6
CONTINUOUS
 10
37.387421
 20
70.092812
 11
32.294724
 21
75.185509
  0
LINE
  8
LC-008-003-----0
 62
     2
  6
CONTINUOUS
 10
36.293488
 20
68.358315
 11
29.466297
 21
75.185509
  0
LINE
  8
LC-008-003-----0
 62
     2
  6
CONTINUOUS
 10
33.465061
 20
68.358315
 11
26.637869
 21
75.185509
  0
LINE
  8
LC-008-003-----0
 62
     2
  6
CONTINUOUS
 10
30.636633
 20
68.358315
 11
23.809443
 21
75.185509
  0
LINE
  8
LC-008-003-----0
 62
     2
  6
CONTINUOUS
 10
27.808205
 20
68.358315
 11
20.981016
 21
75.185509
  0
LINE
  8
LC-008-003-----0
 62
     2
  6
CONTINUOUS
 10
24.979778
 20
68.358315
 11
18.152590
 21
75.185509
  0
LINE
  8
LC-008-003-----0
 62
     2
  6
CONTINUOUS
 10
22.151352
 20
68.358315
 11
15.324161
 21
75.185509
  0
LINE
  8
LC-008-003-----0
 62
     2
  6
CONTINUOUS
 10
7.387420
 20
83.122246
 11
5.324162
 21
85.185509
  0
LINE
  8
LC-008-003-----0
 62
     2
  6
CONTINUOUS
 10
19.322924
 20
68.358315
 11
12.495734
 21
75.185509
  0
LINE
  8
LC-008-003-----0
 62
     2
  6
CONTINUOUS
 10
7.387420
 20
80.293823
 11
2.495734
 21
85.185509
  0
LINE
  8
LC-008-003-----0
 62
     2
  6
CONTINUOUS
 10
16.494497
 20
68.358315
 11
9.656632
 21
75.196182
  0
LINE
  8
LC-008-003-----0
 62
     2
  6
CONTINUOUS
 10
7.398096
 20
77.454720
 11
-0.332693
 21
85.185509
  0
LINE
  8
LC-008-003-----0
 62
     2
  6
CONTINUOUS
 10
13.666070
 20
68.358315
 11
-3.161120
 21
85.185509
  0
LINE
  8
LC-008-003-----0
 62
     2
  6
CONTINUOUS
 10
10.837643
 20
68.358315
 11
-4.612579
 21
83.808540
  0
LINE
  8
LC-008-003-----0
 62
     2
  6
CONTINUOUS
 10
8.009216
 20
68.358315
 11
-4.612580
 21
80.980110
  0
LINE
  8
LC-008-003-----0
 62
     2
  6
CONTINUOUS
 10
5.180788
 20
68.358315
 11
-4.612580
 21
78.151688
  0
LINE
  8
LC-008-003-----0
 62
     2
  6
CONTINUOUS
 10
2.352361
 20
68.358315
 11
-2.862580
 21
73.573257
  0
LINE
  8
LC-008-003-----0
 62
     2
  6
CONTINUOUS
 10
-3.947639
 20
74.658318
 11
-4.612580
 21
75.323257
  0
LINE
  8
LC-008-003-----0
 62
     2
  6
CONTINUOUS
 10
-0.476066
 20
68.358315
 11
-2.862580
 21
70.744827
  0
LINE
  8
LC-008-003-----0
 62
     2
  6
CONTINUOUS
 10
0.000000
 20
0.000000
 11
0.000000
 21
0.000000
  0
LINE
  8
LC-008-003-----0
 62
     2
  6
CONTINUOUS
 10
0.000000
 20
0.000000
 11
0.000000
 21
0.000000
  0
LINE
  8
LC-008-003-----0
 62
     2
  6
CONTINUOUS
 10
0.000000
 20
0.000000
 11
0.000000
 21
0.000000
  0
LINE
  8
LC-008-003-----0
 62
     2
  6
CONTINUOUS
 10
0.000000
 20
0.000000
 11
0.000000
 21
0.000000
  0
LINE
  8
LC-008-003-----0
 62
     2
  6
CONTINUOUS
 10
0.000000
 20
0.000000
 11
0.000000
 21
0.000000
  0
LINE
  8
LC-008-003-----0
 62
     2
  6
CONTINUOUS
 10
0.000000
 20
0.000000
 11
0.000000
 21
0.000000
  0
LINE
  8
LC-008-003-----0
 62
     2
  6
CONTINUOUS
 10
0.000000
 20
0.000000
 11
0.000000
 21
0.000000
  0
LINE
  8
LC-008-003-----0
 62
     2
  6
CONTINUOUS
 10
0.000000
 20
0.000000
 11
0.000000
 21
0.000000
  0
LINE
  8
LC-008-003-----0
 62
     2
  6
CONTINUOUS
 10
0.000000
 20
0.000000
 11
0.000000
 21
0.000000
  0
LINE
  8
LC-008-003-----0
 62
     2
  6
CONTINUOUS
 10
0.000000
 20
0.000000
 11
0.000000
 21
0.000000
  0
LINE
  8
LC-008-003-----0
 62
     2
  6
CONTINUOUS
 10
0.000000
 20
0.000000
 11
0.000000
 21
0.000000
  0
LINE
  8
LC-008-003-----0
 62
     2
  6
CONTINUOUS
 10
0.000000
 20
0.000000
 11
0.000000
 21
0.000000
  0
LINE
  8
LC-003-002-----0
 62
     1
  6
CONTINUOUS
 10
-2.862580
 20
74.658318
 11
-2.862580
 21
71.508316
  0
LINE
  8
LC-003-002-----0
 62
     1
  6
CONTINUOUS
 10
-23.766962
 20
60.685505
 11
-12.612581
 21
60.685505
  0
LINE
  8
LC-003-002-----0
 62
     1
  6
CONTINUOUS
 10
-12.612580
 20
60.685505
 11
45.387421
 21
60.685505
  0
LINE
  8
LC-003-002-----0
 62
     1
  6
CONTINUOUS
 10
45.387421
 20
60.685505
 11
56.936691
 21
60.685505
  0
LINE
  8
LC-003-002-----0
 62
     1
  6
CONTINUOUS
 10
-2.862580
 20
71.508316
 11
-2.862580
 21
67.108315
  0
LINE
  8
LC-003-002-----0
 62
     1
  6
CONTINUOUS
 10
-141.102921
 20
75.358315
 11
-141.102921
 21
21.358318
  0
LINE
  8
LC-003-002-----0
 62
     1
  6
CONTINUOUS
 10
-131.102921
 20
11.358317
 11
-77.102905
 21
11.358317
  0
LINE
  8
LC-003-002-----0
 62
     1
  6
CONTINUOUS
 10
-67.102913
 20
21.358316
 11
-67.102913
 21
75.358315
  0
LINE
  8
LC-002-021-SLN-3
 62
     2
  6
CENTER
 10
-122.802917
 20
75.358315
 11
-139.402924
 21
75.358315
  0
LINE
  8
LC-002-021-SLN-3
 62
     2
  6
CENTER
 10
-131.102921
 20
83.658318
 11
-131.102921
 21
67.058319
  0
LINE
  8
LC-003-002-----0
 62
     1
  6
CONTINUOUS
 10
-131.102921
 20
85.358315
 11
-77.102905
 21
85.358315
  0
LINE
  8
LC-002-021-SLN-3
 62
     2
  6
CENTER
 10
-68.802917
 20
75.358315
 11
-85.402916
 21
75.358315
  0
LINE
  8
LC-002-021-SLN-3
 62
     2
  6
CENTER
 10
-77.102913
 20
83.658318
 11
-77.102913
 21
67.058319
  0
LINE
  8
LC-003-002-----0
 62
     1
  6
CONTINUOUS
 10
39.137421
 20
68.358315
 11
43.887421
 21
68.358315
  0
LINE
  8
LC-003-002-----0
 62
     1
  6
CONTINUOUS
 10
-11.112580
 20
28.358316
 11
-4.612579
 21
28.358316
  0
CIRCLE
  8
LC-003-002-----0
 62
     1
  6
CONTINUOUS
 10
-131.102921
 20
75.358315
 40
3.300000
  0
CIRCLE
  8
LC-003-002-----0
 62
     1
  6
CONTINUOUS
 10
-77.102913
 20
75.358315
 40
3.300000
  0
CIRCLE
  8
LC-003-002-----0
 62
     1
  6
CONTINUOUS
 10
-77.102913
 20
21.358316
 40
3.300000
  0
CIRCLE
  8
LC-003-002-----0
 62
     1
  6
CONTINUOUS
 10
-131.102921
 20
21.358316
 40
3.300000
  0
LINE
  8
LC-002-021-SLN-3
 62
     2
  6
CENTER
 10
-62.102917
 20
48.358318
 11
-146.102921
 21
48.358318
  0
LINE
  8
LC-002-021-SLN-3
 62
     2
  6
CENTER
 10
-104.102913
 20
6.358317
 11
-104.102913
 21
90.358315
  0
LINE
  8
LC-002-021-SLN-3
 62
     2
  6
CENTER
 10
-122.802917
 20
21.358316
 11
-139.402924
 21
21.358316
  0
LINE
  8
LC-002-021-SLN-3
 62
     2
  6
CENTER
 10
-131.102921
 20
29.658318
 11
-131.102921
 21
13.058316
  0
LINE
  8
LC-002-021-SLN-3
 62
     2
  6
CENTER
 10
-68.802917
 20
21.358316
 11
-85.402916
 21
21.358316
  0
LINE
  8
LC-002-021-SLN-3
 62
     2
  6
CENTER
 10
-77.102913
 20
29.658318
 11
-77.102913
 21
13.058316
  0
ARC
  8
LC-003-002-----0
 62
     1
  6
CONTINUOUS
 10
-131.102921
 20
75.358315
 40
10.000000
 50
90.000003
 51
180.000009
  0
ARC
  8
LC-003-002-----0
 62
     1
  6
CONTINUOUS
 10
-77.102913
 20
75.358315
 40
10.000000
 50
0.000000
 51
90.000003
  0
ARC
  8
LC-003-002-----0
 62
     1
  6
CONTINUOUS
 10
-77.102913
 20
21.358316
 40
10.000000
 50
269.999997
 51
0.000000
  0
ARC
  8
LC-003-002-----0
 62
     1
  6
CONTINUOUS
 10
-131.102921
 20
21.358316
 40
10.000000
 50
180.000009
 51
269.999997
  0
CIRCLE
  8
LC-003-002-----0
 62
     1
  6
CONTINUOUS
 10
-104.102913
 20
48.358318
 40
12.500000
  0
CIRCLE
  8
LC-003-002-----0
 62
     1
  6
CONTINUOUS
 10
-104.102913
 20
48.358318
 40
20.000000
  0
CIRCLE
  8
LC-003-002-----0
 62
     1
  6
CONTINUOUS
 10
-104.102913
 20
48.358318
 40
27.000000
  0
LINE
  8
LC-003-002-----0
 62
     1
  6
CONTINUOUS
 10
-4.612580
 20
11.185506
 11
7.387420
 21
11.185506
  0
LINE
  8
LC-003-002-----0
 62
     1
  6
CONTINUOUS
 10
-4.612580
 20
85.185509
 11
7.387420
 21
85.185509
  0
LINE
  8
LC-003-002-----0
 62
     1
  6
CONTINUOUS
 10
9.887420
 20
21.185507
 11
37.387421
 21
21.185507
  0
LINE
  8
LC-003-002-----0
 62
     1
  6
CONTINUOUS
 10
39.137421
 20
28.358316
 11
43.887421
 21
28.358316
  0
LINE
  8
LC-003-002-----0
 62
     1
  6
CONTINUOUS
 10
-26.623356
 20
35.685505
 11
-12.612579
 21
35.685505
  0
ARC
  8
LC-003-002-----0
 62
     1
  6
CONTINUOUS
 10
43.887421
 20
66.858315
 40
1.500000
 50
0.000000
 51
90.000003
  0
LINE
  8
LC-003-002-----0
 62
     1
  6
CONTINUOUS
 10
9.887420
 20
75.185509
 11
37.387421
 21
75.185509
  0
LINE
  8
LC-001-150-----0
 62
     2
  6
DASHED
 10
-4.612580
 20
17.885506
 11
7.387420
 21
17.885506
  0
LINE
  8
LC-001-150-----0
 62
     2
  6
DASHED
 10
-4.612580
 20
24.485506
 11
7.387420
 21
24.485506
  0
LINE
  8
LC-003-002-----0
 62
     1
  6
CONTINUOUS
 10
-12.612580
 20
66.858315
 11
-12.612580
 21
60.685509
  0
LINE
  8
LC-003-002-----0
 62
     1
  6
CONTINUOUS
 10
45.387421
 20
29.858316
 11
45.387421
 21
48.358318
  0
LINE
  8
LC-003-002-----0
 62
     1
  6
CONTINUOUS
 10
-11.112580
 20
68.358315
 11
-4.612579
 21
68.358315
  0
LINE
  8
LC-003-002-----0
 62
     1
  6
CONTINUOUS
 10
37.387421
 20
21.185507
 11
37.387421
 21
48.358318
  0
LINE
  8
LC-003-002-----0
 62
     1
  6
CONTINUOUS
 10
-4.612580
 20
11.185506
 11
-4.612580
 21
48.012695
  0
LINE
  8
LC-003-002-----0
 62
     1
  6
CONTINUOUS
 10
7.387420
 20
11.185506
 11
7.387420
 21
48.358318
  0
LINE
  8
LC-003-002-----0
 62
     1
  6
CONTINUOUS
 10
45.387421
 20
35.685505
 11
55.332355
 21
35.685505
  0
LINE
  8
LC-003-002-----0
 62
     1
  6
CONTINUOUS
 10
-4.612580
 20
67.108315
 11
-4.612580
 21
85.185509
  0
LINE
  8
LC-003-002-----0
 62
     1
  6
CONTINUOUS
 10
7.387420
 20
77.685509
 11
7.387420
 21
85.185509
  0
LINE
  8
LC-003-002-----0
 62
     1
  6
CONTINUOUS
 10
37.387421
 20
68.185509
 11
37.387421
 21
75.185509
  0
LINE
  8
LC-002-021-SLN-3
 62
     2
  6
CENTER
 10
60.988235
 20
48.358318
 11
-29.956726
 21
48.358318
  0
LINE
  8
LC-002-021-SLN-3
 62
     2
  6
CENTER
 10
12.387420
 20
21.185507
 11
-9.612580
 21
21.185507
  0
LINE
  8
LC-008-003-----0
 62
     2
  6
CONTINUOUS
 10
-23.766962
 20
60.685505
 11
-25.842453
 21
53.784519
  0
LINE
  8
LC-008-003-----0
 62
     2
  6
CONTINUOUS
 10
-25.842453
 20
53.784519
 11
-24.215536
 21
43.817581
  0
LINE
  8
LC-008-003-----0
 62
     2
  6
CONTINUOUS
 10
-24.215536
 20
43.817581
 11
-26.623356
 21
35.685505
  0
LINE
  8
LC-008-003-----0
 62
     2
  6
CONTINUOUS
 10
56.936691
 20
60.685505
 11
57.291210
 21
53.612923
  0
LINE
  8
LC-008-003-----0
 62
     2
  6
CONTINUOUS
 10
57.291210
 20
53.612923
 11
54.734627
 21
43.302788
  0
LINE
  8
LC-008-003-----0
 62
     2
  6
CONTINUOUS
 10
54.734627
 20
43.302788
 11
55.332355
 21
35.685505
  0
LINE
  8
LC-003-002-----0
 62
     1
  6
CONTINUOUS
 10
-12.612580
 20
48.358318
 11
-12.612580
 21
29.858315
  0
LINE
  8
LC-003-002-----0
 62
     1
  6
CONTINUOUS
 10
45.387421
 20
60.685505
 11
45.387421
 21
66.858315
  0
LINE
  8
LC-003-002-----0
 62
     1
  6
CONTINUOUS
 10
-2.862580
 20
68.358315
 11
37.387421
 21
68.358315
  0
LINE
  8
LC-003-002-----0
 62
     1
  6
CONTINUOUS
 10
-4.612580
 20
74.658318
 11
-2.862580
 21
74.658318
  0
LINE
  8
LC-003-002-----0
 62
     1
  6
CONTINUOUS
 10
37.387421
 20
23.608316
 11
37.387421
 21
48.358318
  0
LINE
  8
LC-003-002-----0
 62
     1
  6
CONTINUOUS
 10
37.387421
 20
71.508316
 11
39.137421
 21
71.508316
  0
LINE
  8
LC-003-002-----0
 62
     1
  6
CONTINUOUS
 10
39.137421
 20
71.508316
 11
39.137421
 21
67.108315
  0
LINE
  8
LC-003-002-----0
 62
     1
  6
CONTINUOUS
 10
37.387421
 20
23.608316
 11
39.137421
 21
23.608316
  0
LINE
  8
LC-003-002-----0
 62
     1
  6
CONTINUOUS
 10
39.137421
 20
48.358318
 11
39.137421
 21
23.608315
  0
LINE
  8
LC-003-002-----0
 62
     1
  6
CONTINUOUS
 10
37.387421
 20
67.108315
 11
39.137421
 21
67.108315
  0
ARC
  8
LC-003-002-----0
 62
     1
  6
CONTINUOUS
 10
43.887421
 20
29.858316
 40
1.500000
 50
269.999997
 51
0.000000
  0
LINE
  8
LC-003-002-----0
 62
     1
  6
CONTINUOUS
 10
37.387421
 20
67.108315
 11
37.387421
 21
71.508316
  0
LINE
  8
LC-003-002-----0
 62
     1
  6
CONTINUOUS
 10
-4.612580
 20
67.108315
 11
-4.612580
 21
71.508316
  0
ARC
  8
LC-003-002-----0
 62
     1
  6
CONTINUOUS
 10
9.887420
 20
77.685509
 40
2.500000
 50
180.000009
 51
269.999997
  0
ARC
  8
LC-003-002-----0
 62
     1
  6
CONTINUOUS
 10
9.887420
 20
18.685507
 40
2.500000
 50
90.000003
 51
180.000009
  0
ARC
  8
LC-003-002-----0
 62
     1
  6
CONTINUOUS
 10
-11.112580
 20
29.858316
 40
1.500000
 50
180.000009
 51
269.999997
  0
ARC
  8
LC-003-002-----0
 62
     1
  6
CONTINUOUS
 10
-11.112580
 20
66.858315
 40
1.500000
 50
90.000003
 51
180.000009
  0
LINE
  8
LC-003-002-----0
 62
     1
  6
CONTINUOUS
 10
33.005810
 20
64.435509
 11
-0.230969
 21
64.435509
  0
LINE
  8
LC-003-002-----0
 62
     1
  6
CONTINUOUS
 10
-4.612580
 20
71.508316
 11
-2.862580
 21
71.508316
  0
LINE
  8
LC-003-002-----0
 62
     1
  6
CONTINUOUS
 10
-9.612580
 20
60.685505
 11
-9.612580
 21
64.499420
  0
LINE
  8
LC-003-002-----0
 62
     1
  6
CONTINUOUS
 10
42.387421
 20
60.685505
 11
42.387421
 21
64.499420
  0
CIRCLE
  8
LC-003-002-----0
 62
     1
  6
CONTINUOUS
 10
16.387421
 20
62.560505
 40
1.875000
  0
CIRCLE
  8
LC-003-002-----0
 62
     1
  6
CONTINUOUS
 10
20.147421
 20
62.560505
 40
1.875000
  0
LINE
  8
LC-003-002-----0
 62
     1
  6
CONTINUOUS
 10
-4.612580
 20
67.108315
 11
-2.862580
 21
67.108315
  0
CIRCLE
  8
LC-003-002-----0
 62
     1
  6
CONTINUOUS
 10
23.907419
 20
62.560505
 40
1.875000
  0
CIRCLE
  8
LC-003-002-----0
 62
     1
  6
CONTINUOUS
 10
27.667419
 20
62.560505
 40
1.875000
  0
CIRCLE
  8
LC-003-002-----0
 62
     1
  6
CONTINUOUS
 10
31.427420
 20
62.560505
 40
1.875000
  0
CIRCLE
  8
LC-003-002-----0
 62
     1
  6
CONTINUOUS
 10
35.130299
 20
63.213425
 40
1.875000
  0
CIRCLE
  8
LC-003-002-----0
 62
     1
  6
CONTINUOUS
 10
38.663544
 20
64.499420
 40
1.875000
  0
CIRCLE
  8
LC-003-002-----0
 62
     1
  6
CONTINUOUS
 10
12.627420
 20
62.560505
 40
1.875000
  0
CIRCLE
  8
LC-003-002-----0
 62
     1
  6
CONTINUOUS
 10
8.867420
 20
62.560505
 40
1.875000
  0
CIRCLE
  8
LC-003-002-----0
 62
     1
  6
CONTINUOUS
 10
5.107420
 20
62.560505
 40
1.875000
  0
CIRCLE
  8
LC-003-002-----0
 62
     1
  6
CONTINUOUS
 10
1.347420
 20
62.560505
 40
1.875000
  0
CIRCLE
  8
LC-003-002-----0
 62
     1
  6
CONTINUOUS
 10
-2.355457
 20
63.213425
 40
1.875000
  0
CIRCLE
  8
LC-003-002-----0
 62
     1
  6
CONTINUOUS
 10
-5.888701
 20
64.499420
 40
1.875000
  0
LINE
  8
LC-003-002-----0
 62
     1
  6
CONTINUOUS
 10
40.538544
 20
64.499420
 11
42.387421
 21
64.499420
  0
LINE
  8
LC-003-002-----0
 62
     1
  6
CONTINUOUS
 10
-7.763701
 20
64.499420
 11
-9.612580
 21
64.499420
  0
LINE
  8
LC-003-002-----0
 62
     1
  6
CONTINUOUS
 10
-5.247413
 20
66.261345
 11
-0.230968
 21
64.435509
  0
LINE
  8
LC-003-002-----0
 62
     1
  6
CONTINUOUS
 10
-6.529989
 20
62.737495
 11
-0.892195
 21
60.685505
  0
LINE
  8
LC-003-002-----0
 62
     1
  6
CONTINUOUS
 10
33.667034
 20
60.685505
 11
39.304829
 21
62.737495
  0
LINE
  8
LC-003-002-----0
 62
     1
  6
CONTINUOUS
 10
33.005810
 20
64.435509
 11
38.022255
 21
66.261345
  0
ARC
  8
LC-003-002-----0
 62
     1
  6
CONTINUOUS
 10
-104.102913
 20
49.458317
 40
22.049999
 50
292.955908
 51
247.044087
  0
LINE
  8
LC-003-002-----0
 62
     1
  6
CONTINUOUS
 10
-112.702919
 20
29.154560
 11
-111.773262
 21
26.354137
  0
LINE
  8
LC-003-002-----0
 62
     1
  6
CONTINUOUS
 10
-109.417068
 20
24.339781
 11
-105.202919
 21
23.640612
  0
LINE
  8
LC-003-002-----0
 62
     1
  6
CONTINUOUS
 10
-103.002914
 20
23.640612
 11
-98.788765
 21
24.339781
  0
LINE
  8
LC-003-002-----0
 62
     1
  6
CONTINUOUS
 10
-95.502914
 20
29.154560
 11
-96.432571
 21
26.354137
  0
CIRCLE
  8
LC-003-002-----0
 62
     1
  6
CONTINUOUS
 10
-100.502914
 20
26.640612
 40
1.250000
  0
CIRCLE
  8
LC-003-002-----0
 62
     1
  6
CONTINUOUS
 10
-107.702919
 20
26.640612
 40
1.250000
  0
ARC
  8
LC-003-002-----0
 62
     1
  6
CONTINUOUS
 10
-108.926048
 20
27.299324
 40
3.000000
 50
198.364584
 51
260.579876
  0
ARC
  8
LC-003-002-----0
 62
     1
  6
CONTINUOUS
 10
-99.279785
 20
27.299324
 40
3.000000
 50
279.420126
 51
341.635419
  0
LINE
  8
LC-003-002-----0
 62
     1
  6
CONTINUOUS
 10
-103.002914
 20
28.388590
 11
-103.002914
 21
23.640612
  0
LINE
  8
LC-003-002-----0
 62
     1
  6
CONTINUOUS
 10
-105.202919
 20
28.388590
 11
-105.202919
 21
23.640612
  0
ENDSEC
  0
EOF
