  0
SECTION
  2
HEADER
  9
$LIMMIN
 10
127.028809
 20
278.400513
  9
$LIMMAX
 10
423.537476
 20
396.400513
  9
$EXTMIN
 10
127.028809
 20
278.400513
  9
$EXTMAX
 10
423.537476
 20
396.400513
  0
ENDSEC
  0
SECTION
  2
TABLES
  0
TABLE
  2
LTYPE
 70
     3
  0
LTYPE
  2
CONTINUOUS
 70
    64
  3
Ausgezogene Linie
 72
    65
 73
     0
 40
0.0
  0
LTYPE
  2
DASHED
 70
    64
  3
__ __ __ __ __ __ __ __ __ __ __ __ __ __ __
 72
    65
 73
     2
 40
0.75
 49
0.5
 49
-0.25
  0
LTYPE
  2
CENTER
 70
    64
  3
____ _ ____ _ ____ _ ____ _ ____ _ ____ _ ____
 72
    65
 73
     4
 40
2.0
 49
1.25
 49
-0.25
 49
0.25
 49
-0.25
  0
ENDTAB
  0
TABLE
  2
LAYER
 70
     5
  0
LAYER
  2
LC-INFO-1-1-MM-A0-0
 70
    64
 62
     7
  6
CONTINUOUS
  0
LAYER
  2
LC-003-002-----0
 70
    64
 62
     7
  6
CONTINUOUS
  0
LAYER
  2
LC-002-021-SLN-3
 70
    64
 62
     7
  6
CONTINUOUS
  0
LAYER
  2
LC-001-150-----0
 70
    64
 62
     7
  6
CONTINUOUS
  0
LAYER
  2
LC-008-003-----0
 70
    64
 62
     7
  6
CONTINUOUS
  0
ENDTAB
  0
TABLE
  2
STYLE
 70
     1
  0
STYLE
  2
TXT8
 70
    64
 40
0.0
 41
1.0
 50
0.0
 71
     0
 42
3.500000
  3
TXT8
  4

  0
ENDTAB
  0
ENDSEC
  0
SECTION
  2
BLOCKS
  0
ENDSEC
  0
SECTION
  2
ENTITIES
  0
LINE
  8
LC-008-003-----0
 62
     2
  6
CONTINUOUS
 10
391.599548
 20
377.732605
 11
390.931671
 21
378.400513
  0
LINE
  8
LC-008-003-----0
 62
     2
  6
CONTINUOUS
 10
391.599548
 20
374.904175
 11
388.103241
 21
378.400513
  0
LINE
  8
LC-008-003-----0
 62
     2
  6
CONTINUOUS
 10
391.599548
 20
372.075775
 11
385.274811
 21
378.400513
  0
LINE
  8
LC-008-003-----0
 62
     2
  6
CONTINUOUS
 10
391.599548
 20
369.247345
 11
382.446381
 21
378.400513
  0
LINE
  8
LC-008-003-----0
 62
     2
  6
CONTINUOUS
 10
389.617950
 20
368.400513
 11
379.617950
 21
378.400513
  0
LINE
  8
LC-008-003-----0
 62
     2
  6
CONTINUOUS
 10
386.789520
 20
368.400513
 11
376.789520
 21
378.400513
  0
LINE
  8
LC-008-003-----0
 62
     2
  6
CONTINUOUS
 10
383.961090
 20
368.400513
 11
373.961090
 21
378.400513
  0
LINE
  8
LC-008-003-----0
 62
     2
  6
CONTINUOUS
 10
381.132660
 20
368.400513
 11
371.132660
 21
378.400513
  0
LINE
  8
LC-008-003-----0
 62
     2
  6
CONTINUOUS
 10
378.304260
 20
368.400513
 11
368.304260
 21
378.400513
  0
LINE
  8
LC-008-003-----0
 62
     2
  6
CONTINUOUS
 10
375.475830
 20
368.400513
 11
365.475830
 21
378.400513
  0
LINE
  8
LC-008-003-----0
 62
     2
  6
CONTINUOUS
 10
372.647400
 20
368.400513
 11
362.647400
 21
378.400513
  0
LINE
  8
LC-008-003-----0
 62
     2
  6
CONTINUOUS
 10
369.818970
 20
368.400513
 11
359.818970
 21
378.400513
  0
LINE
  8
LC-008-003-----0
 62
     2
  6
CONTINUOUS
 10
348.599548
 20
389.619904
 11
346.818970
 21
391.400513
  0
LINE
  8
LC-008-003-----0
 62
     2
  6
CONTINUOUS
 10
366.990540
 20
368.400513
 11
356.990540
 21
378.400513
  0
LINE
  8
LC-008-003-----0
 62
     2
  6
CONTINUOUS
 10
348.599548
 20
386.791504
 11
343.990540
 21
391.400513
  0
LINE
  8
LC-008-003-----0
 62
     2
  6
CONTINUOUS
 10
364.162109
 20
368.400513
 11
354.162109
 21
378.400513
  0
LINE
  8
LC-008-003-----0
 62
     2
  6
CONTINUOUS
 10
348.599548
 20
383.963074
 11
341.162109
 21
391.400513
  0
LINE
  8
LC-008-003-----0
 62
     2
  6
CONTINUOUS
 10
361.333679
 20
368.400513
 11
350.999878
 21
378.734314
  0
LINE
  8
LC-008-003-----0
 62
     2
  6
CONTINUOUS
 10
348.933350
 20
380.800842
 11
338.333679
 21
391.400513
  0
LINE
  8
LC-008-003-----0
 62
     2
  6
CONTINUOUS
 10
358.505249
 20
368.400513
 11
335.505249
 21
391.400513
  0
LINE
  8
LC-008-003-----0
 62
     2
  6
CONTINUOUS
 10
355.676819
 20
368.400513
 11
332.676819
 21
391.400513
  0
LINE
  8
LC-008-003-----0
 62
     2
  6
CONTINUOUS
 10
352.848389
 20
368.400513
 11
332.599548
 21
388.649353
  0
LINE
  8
LC-008-003-----0
 62
     2
  6
CONTINUOUS
 10
350.019989
 20
368.400513
 11
332.599548
 21
385.820923
  0
LINE
  8
LC-008-003-----0
 62
     2
  6
CONTINUOUS
 10
347.191559
 20
368.400513
 11
332.599548
 21
382.992493
  0
LINE
  8
LC-008-003-----0
 62
     2
  6
CONTINUOUS
 10
344.363129
 20
368.400513
 11
332.599548
 21
380.164063
  0
LINE
  8
LC-008-003-----0
 62
     2
  6
CONTINUOUS
 10
341.534698
 20
368.400513
 11
334.813568
 21
375.121643
  0
LINE
  8
LC-008-003-----0
 62
     2
  6
CONTINUOUS
 10
333.534698
 20
376.400513
 11
332.599548
 21
377.335632
  0
LINE
  8
LC-008-003-----0
 62
     2
  6
CONTINUOUS
 10
338.706268
 20
368.400513
 11
334.813568
 21
372.293213
  0
LINE
  8
LC-008-003-----0
 62
     2
  6
CONTINUOUS
 10
335.877838
 20
368.400513
 11
334.813568
 21
369.464783
  0
LINE
  8
LC-008-003-----0
 62
     2
  6
CONTINUOUS
 10
399.826935
 20
357.400513
 11
402.099548
 21
359.673157
  0
LINE
  8
LC-008-003-----0
 62
     2
  6
CONTINUOUS
 10
399.099548
 20
359.501587
 11
402.099548
 21
362.501587
  0
LINE
  8
LC-008-003-----0
 62
     2
  6
CONTINUOUS
 10
398.920929
 20
362.151367
 11
402.099548
 21
365.330017
  0
LINE
  8
LC-008-003-----0
 62
     2
  6
CONTINUOUS
 10
397.343933
 20
363.402802
 11
401.629639
 21
367.688507
  0
LINE
  8
LC-008-003-----0
 62
     2
  6
CONTINUOUS
 10
395.844879
 20
364.732178
 11
399.513214
 21
368.400513
  0
LINE
  8
LC-008-003-----0
 62
     2
  6
CONTINUOUS
 10
392.729980
 20
364.445709
 11
396.684784
 21
368.400513
  0
LINE
  8
LC-008-003-----0
 62
     2
  6
CONTINUOUS
 10
388.962128
 20
363.506256
 11
392.191864
 21
366.736023
  0
LINE
  8
LC-008-003-----0
 62
     2
  6
CONTINUOUS
 10
393.813568
 20
368.357727
 11
393.856354
 21
368.400513
  0
LINE
  8
LC-008-003-----0
 62
     2
  6
CONTINUOUS
 10
385.527924
 20
362.900513
 11
391.027924
 21
368.400513
  0
LINE
  8
LC-008-003-----0
 62
     2
  6
CONTINUOUS
 10
382.699493
 20
362.900513
 11
388.199493
 21
368.400513
  0
LINE
  8
LC-008-003-----0
 62
     2
  6
CONTINUOUS
 10
379.871063
 20
362.900513
 11
385.371063
 21
368.400513
  0
LINE
  8
LC-008-003-----0
 62
     2
  6
CONTINUOUS
 10
377.042664
 20
362.900513
 11
382.542664
 21
368.400513
  0
LINE
  8
LC-008-003-----0
 62
     2
  6
CONTINUOUS
 10
374.214233
 20
362.900513
 11
379.714233
 21
368.400513
  0
LINE
  8
LC-008-003-----0
 62
     2
  6
CONTINUOUS
 10
371.385803
 20
362.900513
 11
376.885803
 21
368.400513
  0
LINE
  8
LC-008-003-----0
 62
     2
  6
CONTINUOUS
 10
368.557373
 20
362.900513
 11
374.057373
 21
368.400513
  0
LINE
  8
LC-008-003-----0
 62
     2
  6
CONTINUOUS
 10
365.728943
 20
362.900513
 11
371.228943
 21
368.400513
  0
LINE
  8
LC-008-003-----0
 62
     2
  6
CONTINUOUS
 10
362.900513
 20
362.900513
 11
368.400513
 21
368.400513
  0
LINE
  8
LC-008-003-----0
 62
     2
  6
CONTINUOUS
 10
360.072083
 20
362.900513
 11
365.572083
 21
368.400513
  0
LINE
  8
LC-008-003-----0
 62
     2
  6
CONTINUOUS
 10
357.243652
 20
362.900513
 11
362.743652
 21
368.400513
  0
LINE
  8
LC-008-003-----0
 62
     2
  6
CONTINUOUS
 10
354.415222
 20
362.900513
 11
359.915222
 21
368.400513
  0
LINE
  8
LC-008-003-----0
 62
     2
  6
CONTINUOUS
 10
351.586792
 20
362.900513
 11
357.086792
 21
368.400513
  0
LINE
  8
LC-008-003-----0
 62
     2
  6
CONTINUOUS
 10
348.758392
 20
362.900513
 11
354.258392
 21
368.400513
  0
LINE
  8
LC-008-003-----0
 62
     2
  6
CONTINUOUS
 10
345.929962
 20
362.900513
 11
351.429962
 21
368.400513
  0
LINE
  8
LC-008-003-----0
 62
     2
  6
CONTINUOUS
 10
343.101532
 20
362.900513
 11
348.601532
 21
368.400513
  0
LINE
  8
LC-008-003-----0
 62
     2
  6
CONTINUOUS
 10
340.273102
 20
362.900513
 11
345.773102
 21
368.400513
  0
LINE
  8
LC-008-003-----0
 62
     2
  6
CONTINUOUS
 10
337.488953
 20
362.944794
 11
342.944672
 21
368.400513
  0
LINE
  8
LC-008-003-----0
 62
     2
  6
CONTINUOUS
 10
335.225006
 20
363.509277
 11
340.116241
 21
368.400513
  0
LINE
  8
LC-008-003-----0
 62
     2
  6
CONTINUOUS
 10
332.961029
 20
364.073730
 11
337.287811
 21
368.400513
  0
LINE
  8
LC-008-003-----0
 62
     2
  6
CONTINUOUS
 10
323.459381
 20
357.400513
 11
325.099548
 21
359.040680
  0
LINE
  8
LC-008-003-----0
 62
     2
  6
CONTINUOUS
 10
330.697083
 20
364.638214
 11
332.794891
 21
366.736023
  0
LINE
  8
LC-008-003-----0
 62
     2
  6
CONTINUOUS
 10
322.099548
 20
358.869110
 11
325.099548
 21
361.869110
  0
LINE
  8
LC-008-003-----0
 62
     2
  6
CONTINUOUS
 10
325.381805
 20
362.151367
 11
331.630951
 21
368.400513
  0
LINE
  8
LC-008-003-----0
 62
     2
  6
CONTINUOUS
 10
322.099548
 20
361.697540
 11
328.802521
 21
368.400513
  0
LINE
  8
LC-008-003-----0
 62
     2
  6
CONTINUOUS
 10
322.099548
 20
364.525970
 11
325.974121
 21
368.400513
  0
LINE
  8
LC-008-003-----0
 62
     2
  6
CONTINUOUS
 10
333.855560
 20
366.736023
 11
334.813568
 21
367.694031
  0
LINE
  8
LC-008-003-----0
 62
     2
  6
CONTINUOUS
 10
332.794891
 20
366.736023
 11
334.813568
 21
368.754700
  0
LINE
  8
LC-008-003-----0
 62
     2
  6
CONTINUOUS
 10
332.599548
 20
367.601349
 11
334.813568
 21
369.815338
  0
LINE
  8
LC-008-003-----0
 62
     2
  6
CONTINUOUS
 10
332.599548
 20
368.662018
 11
334.813568
 21
370.876007
  0
LINE
  8
LC-008-003-----0
 62
     2
  6
CONTINUOUS
 10
332.599548
 20
369.722656
 11
334.813568
 21
371.936676
  0
LINE
  8
LC-008-003-----0
 62
     2
  6
CONTINUOUS
 10
332.599548
 20
370.783325
 11
334.640747
 21
372.824524
  0
LINE
  8
LC-008-003-----0
 62
     2
  6
CONTINUOUS
 10
332.599548
 20
371.843994
 11
333.580078
 21
372.824524
  0
LINE
  8
LC-008-003-----0
 62
     2
  6
CONTINUOUS
 10
393.252533
 20
366.736023
 11
393.813568
 21
367.297058
  0
LINE
  8
LC-008-003-----0
 62
     2
  6
CONTINUOUS
 10
392.191864
 20
366.736023
 11
393.813568
 21
368.357727
  0
LINE
  8
LC-008-003-----0
 62
     2
  6
CONTINUOUS
 10
391.599548
 20
367.204376
 11
393.813568
 21
369.418365
  0
LINE
  8
LC-008-003-----0
 62
     2
  6
CONTINUOUS
 10
391.599548
 20
368.265045
 11
393.813568
 21
370.479034
  0
LINE
  8
LC-008-003-----0
 62
     2
  6
CONTINUOUS
 10
391.599548
 20
369.325684
 11
393.813568
 21
371.539703
  0
LINE
  8
LC-008-003-----0
 62
     2
  6
CONTINUOUS
 10
391.599548
 20
370.386353
 11
393.813568
 21
372.600372
  0
LINE
  8
LC-008-003-----0
 62
     2
  6
CONTINUOUS
 10
391.599548
 20
371.447021
 11
392.977051
 21
372.824524
  0
LINE
  8
LC-008-003-----0
 62
     2
  6
CONTINUOUS
 10
391.599548
 20
372.507690
 11
391.916382
 21
372.824524
  0
LINE
  8
LC-003-002-----0
 62
     1
  6
CONTINUOUS
 10
334.813568
 20
376.400513
 11
332.599548
 21
376.400513
  0
LINE
  8
LC-003-002-----0
 62
     1
  6
CONTINUOUS
 10
301.846130
 20
357.400513
 11
322.099548
 21
357.400513
  0
LINE
  8
LC-003-002-----0
 62
     1
  6
CONTINUOUS
 10
322.099548
 20
357.400513
 11
402.099548
 21
357.400513
  0
LINE
  8
LC-003-002-----0
 62
     1
  6
CONTINUOUS
 10
402.099548
 20
357.400513
 11
417.000275
 21
357.400513
  0
CIRCLE
  8
LC-003-002-----0
 62
     1
  6
CONTINUOUS
 10
186.028809
 20
335.878387
 40
21.522125
  0
LINE
  8
LC-003-002-----0
 62
     1
  6
CONTINUOUS
 10
132.028809
 20
376.400513
 11
132.028809
 21
298.400513
  0
LINE
  8
LC-003-002-----0
 62
     1
  6
CONTINUOUS
 10
147.028809
 20
283.400513
 11
225.028809
 21
283.400513
  0
LINE
  8
LC-003-002-----0
 62
     1
  6
CONTINUOUS
 10
147.028809
 20
391.400513
 11
225.028809
 21
391.400513
  0
LINE
  8
LC-003-002-----0
 62
     1
  6
CONTINUOUS
 10
240.028809
 20
298.400513
 11
240.028809
 21
376.400513
  0
LINE
  8
LC-002-021-SLN-3
 62
     2
  6
CENTER
 10
157.528809
 20
376.400513
 11
136.528809
 21
376.400513
  0
LINE
  8
LC-002-021-SLN-3
 62
     2
  6
CENTER
 10
147.028809
 20
386.900513
 11
147.028809
 21
365.900513
  0
LINE
  8
LC-003-002-----0
 62
     1
  6
CONTINUOUS
 10
391.599548
 20
366.736023
 11
391.599548
 21
372.824524
  0
LINE
  8
LC-002-021-SLN-3
 62
     2
  6
CENTER
 10
235.528809
 20
376.400513
 11
214.528809
 21
376.400513
  0
LINE
  8
LC-002-021-SLN-3
 62
     2
  6
CENTER
 10
225.028809
 20
386.900513
 11
225.028809
 21
365.900513
  0
CIRCLE
  8
LC-003-002-----0
 62
     1
  6
CONTINUOUS
 10
147.028809
 20
376.400513
 40
5.500000
  0
CIRCLE
  8
LC-003-002-----0
 62
     1
  6
CONTINUOUS
 10
225.028809
 20
376.400513
 40
5.500000
  0
CIRCLE
  8
LC-003-002-----0
 62
     1
  6
CONTINUOUS
 10
225.028809
 20
298.400513
 40
5.500000
  0
CIRCLE
  8
LC-003-002-----0
 62
     1
  6
CONTINUOUS
 10
147.028809
 20
298.400513
 40
5.500000
  0
LINE
  8
LC-002-021-SLN-3
 62
     2
  6
CENTER
 10
245.028809
 20
337.400513
 11
127.028809
 21
337.400513
  0
LINE
  8
LC-002-021-SLN-3
 62
     2
  6
CENTER
 10
186.028809
 20
278.400513
 11
186.028809
 21
396.400513
  0
ARC
  8
LC-003-002-----0
 62
     1
  6
CONTINUOUS
 10
147.028809
 20
376.400513
 40
15.000000
 50
90.000003
 51
180.000009
  0
ARC
  8
LC-003-002-----0
 62
     1
  6
CONTINUOUS
 10
225.028809
 20
376.400513
 40
15.000000
 50
0.000000
 51
90.000003
  0
ARC
  8
LC-003-002-----0
 62
     1
  6
CONTINUOUS
 10
147.028809
 20
298.400513
 40
15.000000
 50
180.000009
 51
269.999997
  0
ARC
  8
LC-003-002-----0
 62
     1
  6
CONTINUOUS
 10
225.028809
 20
298.400513
 40
15.000000
 50
269.999997
 51
0.000000
  0
LINE
  8
LC-002-021-SLN-3
 62
     2
  6
CENTER
 10
235.528809
 20
298.400513
 11
214.528809
 21
298.400513
  0
LINE
  8
LC-002-021-SLN-3
 62
     2
  6
CENTER
 10
225.028809
 20
308.900513
 11
225.028809
 21
287.900513
  0
LINE
  8
LC-002-021-SLN-3
 62
     2
  6
CENTER
 10
157.528809
 20
298.400513
 11
136.528809
 21
298.400513
  0
LINE
  8
LC-002-021-SLN-3
 62
     2
  6
CENTER
 10
147.028809
 20
308.900513
 11
147.028809
 21
287.900513
  0
LINE
  8
LC-003-002-----0
 62
     1
  6
CONTINUOUS
 10
393.813568
 20
372.824524
 11
393.813568
 21
366.736023
  0
CIRCLE
  8
LC-003-002-----0
 62
     1
  6
CONTINUOUS
 10
186.028809
 20
337.400513
 40
41.000000
  0
LINE
  8
LC-003-002-----0
 62
     1
  6
CONTINUOUS
 10
332.599548
 20
391.400513
 11
348.599548
 21
391.400513
  0
LINE
  8
LC-003-002-----0
 62
     1
  6
CONTINUOUS
 10
352.599548
 20
378.400513
 11
391.599548
 21
378.400513
  0
LINE
  8
LC-003-002-----0
 62
     1
  6
CONTINUOUS
 10
324.099548
 20
368.400513
 11
332.599548
 21
368.400513
  0
LINE
  8
LC-003-002-----0
 62
     1
  6
CONTINUOUS
 10
332.599548
 20
283.400513
 11
348.599548
 21
283.400513
  0
LINE
  8
LC-003-002-----0
 62
     1
  6
CONTINUOUS
 10
352.599548
 20
296.400513
 11
391.599548
 21
296.400513
  0
LINE
  8
LC-003-002-----0
 62
     1
  6
CONTINUOUS
 10
324.099548
 20
306.400513
 11
332.599548
 21
306.400513
  0
LINE
  8
LC-003-002-----0
 62
     1
  6
CONTINUOUS
 10
299.540588
 20
317.400513
 11
322.099548
 21
317.400513
  0
LINE
  8
LC-001-150-----0
 62
     2
  6
DASHED
 10
332.599548
 20
303.900513
 11
348.599548
 21
303.900513
  0
LINE
  8
LC-001-150-----0
 62
     2
  6
DASHED
 10
332.599548
 20
292.900513
 11
348.599548
 21
292.900513
  0
LINE
  8
LC-003-002-----0
 62
     1
  6
CONTINUOUS
 10
322.099548
 20
366.400513
 11
322.099548
 21
357.400513
  0
LINE
  8
LC-002-021-SLN-3
 62
     2
  6
CENTER
 10
423.537476
 20
337.400513
 11
295.673279
 21
337.400513
  0
LINE
  8
LC-003-002-----0
 62
     1
  6
CONTINUOUS
 10
402.099548
 20
308.400513
 11
402.099548
 21
337.400513
  0
LINE
  8
LC-003-002-----0
 62
     1
  6
CONTINUOUS
 10
332.599548
 20
299.983917
 11
332.599548
 21
337.400513
  0
LINE
  8
LC-003-002-----0
 62
     1
  6
CONTINUOUS
 10
391.599548
 20
296.400513
 11
391.599548
 21
337.400513
  0
LINE
  8
LC-003-002-----0
 62
     1
  6
CONTINUOUS
 10
332.599548
 20
283.400513
 11
332.599548
 21
337.400513
  0
LINE
  8
LC-003-002-----0
 62
     1
  6
CONTINUOUS
 10
348.599548
 20
283.400513
 11
348.599548
 21
337.400513
  0
LINE
  8
LC-008-003-----0
 62
     2
  6
CONTINUOUS
 10
301.846130
 20
357.400513
 11
299.440308
 21
344.643707
  0
LINE
  8
LC-008-003-----0
 62
     2
  6
CONTINUOUS
 10
299.440308
 20
344.643707
 11
301.984375
 21
329.698395
  0
LINE
  8
LC-008-003-----0
 62
     2
  6
CONTINUOUS
 10
301.984375
 20
329.698395
 11
299.540588
 21
317.400513
  0
LINE
  8
LC-008-003-----0
 62
     2
  6
CONTINUOUS
 10
417.000275
 20
357.400513
 11
419.727722
 21
343.458344
  0
LINE
  8
LC-008-003-----0
 62
     2
  6
CONTINUOUS
 10
419.727722
 20
343.458344
 11
416.837860
 21
328.750122
  0
LINE
  8
LC-008-003-----0
 62
     2
  6
CONTINUOUS
 10
416.837860
 20
328.750122
 11
418.345947
 21
317.400513
  0
LINE
  8
LC-003-002-----0
 62
     1
  6
CONTINUOUS
 10
322.099548
 20
337.400513
 11
322.099548
 21
308.400513
  0
LINE
  8
LC-003-002-----0
 62
     1
  6
CONTINUOUS
 10
332.599548
 20
372.824524
 11
332.599548
 21
391.400513
  0
LINE
  8
LC-003-002-----0
 62
     1
  6
CONTINUOUS
 10
348.599548
 20
382.400513
 11
348.599548
 21
391.400513
  0
LINE
  8
LC-003-002-----0
 62
     1
  6
CONTINUOUS
 10
391.599548
 20
366.736023
 11
391.599548
 21
378.400513
  0
LINE
  8
LC-003-002-----0
 62
     1
  6
CONTINUOUS
 10
402.099548
 20
357.400513
 11
402.099548
 21
366.400513
  0
LINE
  8
LC-002-021-SLN-3
 62
     2
  6
CENTER
 10
353.599548
 20
298.400513
 11
327.599548
 21
298.400513
  0
LINE
  8
LC-003-002-----0
 62
     1
  6
CONTINUOUS
 10
393.813568
 20
306.400513
 11
400.099548
 21
306.400513
  0
LINE
  8
LC-003-002-----0
 62
     1
  6
CONTINUOUS
 10
402.099548
 20
317.400513
 11
418.345947
 21
317.400513
  0
ARC
  8
LC-003-002-----0
 62
     1
  6
CONTINUOUS
 10
352.599548
 20
382.400513
 40
4.000000
 50
180.000009
 51
269.999997
  0
ARC
  8
LC-003-002-----0
 62
     1
  6
CONTINUOUS
 10
352.599548
 20
292.400513
 40
4.000000
 50
90.000003
 51
180.000009
  0
ARC
  8
LC-003-002-----0
 62
     1
  6
CONTINUOUS
 10
324.099548
 20
366.400513
 40
2.000000
 50
90.000003
 51
180.000009
  0
ARC
  8
LC-003-002-----0
 62
     1
  6
CONTINUOUS
 10
400.099548
 20
366.400513
 40
2.000000
 50
0.000000
 51
90.000003
  0
ARC
  8
LC-003-002-----0
 62
     1
  6
CONTINUOUS
 10
400.099548
 20
308.400513
 40
2.000000
 50
269.999997
 51
0.000000
  0
ARC
  8
LC-003-002-----0
 62
     1
  6
CONTINUOUS
 10
324.099548
 20
308.400513
 40
2.000000
 50
180.000009
 51
269.999997
  0
LINE
  8
LC-003-002-----0
 62
     1
  6
CONTINUOUS
 10
386.532562
 20
362.900513
 11
337.666565
 21
362.900513
  0
LINE
  8
LC-003-002-----0
 62
     1
  6
CONTINUOUS
 10
329.969208
 20
364.819672
 11
337.666565
 21
362.900513
  0
CIRCLE
  8
LC-003-002-----0
 62
     1
  6
CONTINUOUS
 10
362.099548
 20
360.150513
 40
2.750000
  0
CIRCLE
  8
LC-003-002-----0
 62
     1
  6
CONTINUOUS
 10
367.599548
 20
360.150513
 40
2.750000
  0
CIRCLE
  8
LC-003-002-----0
 62
     1
  6
CONTINUOUS
 10
373.099548
 20
360.150513
 40
2.750000
  0
CIRCLE
  8
LC-003-002-----0
 62
     1
  6
CONTINUOUS
 10
378.599548
 20
360.150513
 40
2.750000
  0
CIRCLE
  8
LC-003-002-----0
 62
     1
  6
CONTINUOUS
 10
384.099548
 20
360.150513
 40
2.750000
  0
CIRCLE
  8
LC-003-002-----0
 62
     1
  6
CONTINUOUS
 10
389.558563
 20
360.820801
 40
2.750000
  0
CIRCLE
  8
LC-003-002-----0
 62
     1
  6
CONTINUOUS
 10
394.895203
 20
362.151367
 40
2.750000
  0
CIRCLE
  8
LC-003-002-----0
 62
     1
  6
CONTINUOUS
 10
356.599548
 20
360.150513
 40
2.750000
  0
CIRCLE
  8
LC-003-002-----0
 62
     1
  6
CONTINUOUS
 10
351.099548
 20
360.150513
 40
2.750000
  0
CIRCLE
  8
LC-003-002-----0
 62
     1
  6
CONTINUOUS
 10
345.599548
 20
360.150513
 40
2.750000
  0
CIRCLE
  8
LC-003-002-----0
 62
     1
  6
CONTINUOUS
 10
340.099548
 20
360.150513
 40
2.750000
  0
CIRCLE
  8
LC-003-002-----0
 62
     1
  6
CONTINUOUS
 10
334.640564
 20
360.820801
 40
2.750000
  0
CIRCLE
  8
LC-003-002-----0
 62
     1
  6
CONTINUOUS
 10
329.303925
 20
362.151367
 40
2.750000
  0
LINE
  8
LC-003-002-----0
 62
     1
  6
CONTINUOUS
 10
328.638641
 20
359.483063
 11
336.991241
 21
357.400513
  0
LINE
  8
LC-003-002-----0
 62
     1
  6
CONTINUOUS
 10
387.207886
 20
357.400513
 11
395.560486
 21
359.483063
  0
LINE
  8
LC-003-002-----0
 62
     1
  6
CONTINUOUS
 10
386.532562
 20
362.900513
 11
394.229919
 21
364.819672
  0
LINE
  8
LC-003-002-----0
 62
     1
  6
CONTINUOUS
 10
325.099548
 20
357.400513
 11
325.099548
 21
362.151367
  0
LINE
  8
LC-003-002-----0
 62
     1
  6
CONTINUOUS
 10
399.099548
 20
357.400513
 11
399.099548
 21
362.151367
  0
LINE
  8
LC-003-002-----0
 62
     1
  6
CONTINUOUS
 10
397.645203
 20
362.151367
 11
399.099548
 21
362.151367
  0
LINE
  8
LC-003-002-----0
 62
     1
  6
CONTINUOUS
 10
326.553925
 20
362.151367
 11
325.099548
 21
362.151367
  0
LINE
  8
LC-003-002-----0
 62
     1
  6
CONTINUOUS
 10
393.813568
 20
337.400513
 11
393.813568
 21
299.983917
  0
LINE
  8
LC-003-002-----0
 62
     1
  6
CONTINUOUS
 10
332.599548
 20
366.736023
 11
332.599548
 21
372.824524
  0
LINE
  8
LC-003-002-----0
 62
     1
  6
CONTINUOUS
 10
334.813568
 20
376.400513
 11
334.813568
 21
372.824524
  0
LINE
  8
LC-003-002-----0
 62
     1
  6
CONTINUOUS
 10
393.813568
 20
299.983917
 11
391.599548
 21
299.983917
  0
LINE
  8
LC-003-002-----0
 62
     1
  6
CONTINUOUS
 10
334.813568
 20
368.400513
 11
391.599548
 21
368.400513
  0
LINE
  8
LC-003-002-----0
 62
     1
  6
CONTINUOUS
 10
393.813568
 20
368.400513
 11
400.099548
 21
368.400513
  0
LINE
  8
LC-003-002-----0
 62
     1
  6
CONTINUOUS
 10
332.599548
 20
368.400513
 11
332.599548
 21
372.824524
  0
LINE
  8
LC-003-002-----0
 62
     1
  6
CONTINUOUS
 10
334.813568
 20
372.824524
 11
334.813568
 21
366.736023
  0
LINE
  8
LC-003-002-----0
 62
     1
  6
CONTINUOUS
 10
332.599548
 20
372.824524
 11
334.813568
 21
372.824524
  0
LINE
  8
LC-003-002-----0
 62
     1
  6
CONTINUOUS
 10
332.599548
 20
366.736023
 11
334.813568
 21
366.736023
  0
LINE
  8
LC-003-002-----0
 62
     1
  6
CONTINUOUS
 10
391.599548
 20
372.824524
 11
393.813568
 21
372.824524
  0
ARC
  8
LC-003-002-----0
 62
     1
  6
CONTINUOUS
 10
186.028809
 20
337.400513
 40
33.901875
 50
290.051042
 51
249.948959
  0
LINE
  8
LC-003-002-----0
 62
     1
  6
CONTINUOUS
 10
391.599548
 20
366.736023
 11
393.813568
 21
366.736023
  0
CIRCLE
  8
LC-003-002-----0
 62
     1
  6
CONTINUOUS
 10
186.028809
 20
335.878387
 40
30.996000
  0
LINE
  8
LC-003-002-----0
 62
     1
  6
CONTINUOUS
 10
174.405319
 20
305.553528
 11
175.625504
 21
302.021362
  0
LINE
  8
LC-003-002-----0
 62
     1
  6
CONTINUOUS
 10
178.849152
 20
299.344238
 11
184.506683
 21
298.501312
  0
LINE
  8
LC-003-002-----0
 62
     1
  6
CONTINUOUS
 10
187.550934
 20
298.501312
 11
193.208466
 21
299.344238
  0
LINE
  8
LC-003-002-----0
 62
     1
  6
CONTINUOUS
 10
197.652313
 20
305.553528
 11
196.432114
 21
302.021362
  0
CIRCLE
  8
LC-003-002-----0
 62
     1
  6
CONTINUOUS
 10
190.318436
 20
302.541870
 40
1.383750
  0
CIRCLE
  8
LC-003-002-----0
 62
     1
  6
CONTINUOUS
 10
181.739182
 20
302.541870
 40
1.383750
  0
ARC
  8
LC-003-002-----0
 62
     1
  6
CONTINUOUS
 10
179.444595
 20
303.340668
 40
4.040550
 50
199.057657
 51
261.525652
  0
ARC
  8
LC-003-002-----0
 62
     1
  6
CONTINUOUS
 10
192.613022
 20
303.340668
 40
4.040550
 50
278.474350
 51
340.942341
  0
LINE
  8
LC-003-002-----0
 62
     1
  6
CONTINUOUS
 10
187.550934
 20
304.919800
 11
187.550934
 21
298.501312
  0
LINE
  8
LC-003-002-----0
 62
     1
  6
CONTINUOUS
 10
184.506683
 20
304.919800
 11
184.506683
 21
298.501312
  0
ENDSEC
  0
EOF
