  0
SECTION
  2
HEADER
  9
$LIMMIN
 10
121.981544
 20
-19.426765
  9
$LIMMAX
 10
439.956757
 20
120.573242
  9
$EXTMIN
 10
121.981544
 20
-19.426765
  9
$EXTMAX
 10
439.956757
 20
120.573242
  0
ENDSEC
  0
SECTION
  2
TABLES
  0
TABLE
  2
LTYPE
 70
     3
  0
LTYPE
  2
CONTINUOUS
 70
    64
  3
Ausgezogene Linie
 72
    65
 73
     0
 40
0.0
  0
LTYPE
  2
DASHED
 70
    64
  3
__ __ __ __ __ __ __ __ __ __ __ __ __ __ __
 72
    65
 73
     2
 40
0.75
 49
0.5
 49
-0.25
  0
LTYPE
  2
CENTER
 70
    64
  3
____ _ ____ _ ____ _ ____ _ ____ _ ____ _ ____
 72
    65
 73
     4
 40
2.0
 49
1.25
 49
-0.25
 49
0.25
 49
-0.25
  0
ENDTAB
  0
TABLE
  2
LAYER
 70
     5
  0
LAYER
  2
LC-INFO-1-1-MM-A0-0
 70
    64
 62
     7
  6
CONTINUOUS
  0
LAYER
  2
LC-003-002-----0
 70
    64
 62
     7
  6
CONTINUOUS
  0
LAYER
  2
LC-002-021-SLN-3
 70
    64
 62
     7
  6
CONTINUOUS
  0
LAYER
  2
LC-001-150-----0
 70
    64
 62
     7
  6
CONTINUOUS
  0
LAYER
  2
LC-008-003-----0
 70
    64
 62
     7
  6
CONTINUOUS
  0
ENDTAB
  0
TABLE
  2
STYLE
 70
     1
  0
STYLE
  2
TXT8
 70
    64
 40
0.0
 41
1.0
 50
0.0
 71
     0
 42
3.500000
  3
TXT8
  4

  0
ENDTAB
  0
ENDSEC
  0
SECTION
  2
BLOCKS
  0
ENDSEC
  0
SECTION
  2
ENTITIES
  0
LINE
  8
LC-008-003-----0
 62
     2
  6
CONTINUOUS
 10
333.707062
 20
86.573242
 11
334.103790
 21
86.969978
  0
LINE
  8
LC-008-003-----0
 62
     2
  6
CONTINUOUS
 10
332.646393
 20
86.573242
 11
334.103790
 21
88.030640
  0
LINE
  8
LC-008-003-----0
 62
     2
  6
CONTINUOUS
 10
331.585724
 20
86.573242
 11
334.103790
 21
89.091301
  0
LINE
  8
LC-008-003-----0
 62
     2
  6
CONTINUOUS
 10
331.453796
 20
87.501961
 11
334.103790
 21
90.151962
  0
LINE
  8
LC-008-003-----0
 62
     2
  6
CONTINUOUS
 10
331.453796
 20
88.562622
 11
334.103790
 21
91.212624
  0
LINE
  8
LC-008-003-----0
 62
     2
  6
CONTINUOUS
 10
331.453796
 20
89.623283
 11
334.103790
 21
92.273285
  0
LINE
  8
LC-008-003-----0
 62
     2
  6
CONTINUOUS
 10
331.453796
 20
90.683945
 11
334.103790
 21
93.333946
  0
LINE
  8
LC-008-003-----0
 62
     2
  6
CONTINUOUS
 10
331.453796
 20
91.744606
 11
334.103790
 21
94.394600
  0
LINE
  8
LC-008-003-----0
 62
     2
  6
CONTINUOUS
 10
331.453796
 20
92.805260
 11
334.103790
 21
95.455261
  0
LINE
  8
LC-008-003-----0
 62
     2
  6
CONTINUOUS
 10
331.453796
 20
93.865921
 11
334.103790
 21
96.515923
  0
LINE
  8
LC-008-003-----0
 62
     2
  6
CONTINUOUS
 10
331.453796
 20
94.926582
 11
333.850464
 21
97.323242
  0
LINE
  8
LC-008-003-----0
 62
     2
  6
CONTINUOUS
 10
331.453796
 20
95.987244
 11
332.789795
 21
97.323242
  0
LINE
  8
LC-008-003-----0
 62
     2
  6
CONTINUOUS
 10
331.453796
 20
97.047905
 11
331.729126
 21
97.323242
  0
LINE
  8
LC-008-003-----0
 62
     2
  6
CONTINUOUS
 10
406.453796
 20
98.420441
 11
404.300995
 21
100.573242
  0
LINE
  8
LC-008-003-----0
 62
     2
  6
CONTINUOUS
 10
406.453796
 20
94.177795
 11
400.058350
 21
100.573242
  0
LINE
  8
LC-008-003-----0
 62
     2
  6
CONTINUOUS
 10
406.453796
 20
89.935158
 11
395.815735
 21
100.573242
  0
LINE
  8
LC-008-003-----0
 62
     2
  6
CONTINUOUS
 10
404.073090
 20
88.073242
 11
391.573090
 21
100.573242
  0
LINE
  8
LC-008-003-----0
 62
     2
  6
CONTINUOUS
 10
399.830444
 20
88.073242
 11
387.330444
 21
100.573242
  0
LINE
  8
LC-008-003-----0
 62
     2
  6
CONTINUOUS
 10
395.587799
 20
88.073242
 11
383.087799
 21
100.573242
  0
LINE
  8
LC-008-003-----0
 62
     2
  6
CONTINUOUS
 10
391.345154
 20
88.073242
 11
378.845154
 21
100.573242
  0
LINE
  8
LC-008-003-----0
 62
     2
  6
CONTINUOUS
 10
387.102509
 20
88.073242
 11
374.602509
 21
100.573242
  0
LINE
  8
LC-008-003-----0
 62
     2
  6
CONTINUOUS
 10
382.859863
 20
88.073242
 11
370.359863
 21
100.573242
  0
LINE
  8
LC-008-003-----0
 62
     2
  6
CONTINUOUS
 10
378.617249
 20
88.073242
 11
366.117249
 21
100.573242
  0
LINE
  8
LC-008-003-----0
 62
     2
  6
CONTINUOUS
 10
374.374603
 20
88.073242
 11
361.874603
 21
100.573242
  0
LINE
  8
LC-008-003-----0
 62
     2
  6
CONTINUOUS
 10
349.453796
 20
112.994034
 11
346.874603
 21
115.573242
  0
LINE
  8
LC-008-003-----0
 62
     2
  6
CONTINUOUS
 10
370.131958
 20
88.073242
 11
357.631958
 21
100.573242
  0
LINE
  8
LC-008-003-----0
 62
     2
  6
CONTINUOUS
 10
349.453796
 20
108.751389
 11
342.631958
 21
115.573242
  0
LINE
  8
LC-008-003-----0
 62
     2
  6
CONTINUOUS
 10
365.889313
 20
88.073242
 11
353.388794
 21
100.573769
  0
LINE
  8
LC-008-003-----0
 62
     2
  6
CONTINUOUS
 10
349.454315
 20
104.508224
 11
338.389313
 21
115.573242
  0
LINE
  8
LC-008-003-----0
 62
     2
  6
CONTINUOUS
 10
361.646667
 20
88.073242
 11
334.146667
 21
115.573242
  0
LINE
  8
LC-008-003-----0
 62
     2
  6
CONTINUOUS
 10
357.404022
 20
88.073242
 11
331.453796
 21
114.023468
  0
LINE
  8
LC-008-003-----0
 62
     2
  6
CONTINUOUS
 10
353.161407
 20
88.073242
 11
331.453796
 21
109.780830
  0
LINE
  8
LC-008-003-----0
 62
     2
  6
CONTINUOUS
 10
348.918762
 20
88.073242
 11
334.103790
 21
102.888191
  0
LINE
  8
LC-008-003-----0
 62
     2
  6
CONTINUOUS
 10
344.676117
 20
88.073242
 11
334.103790
 21
98.645546
  0
LINE
  8
LC-008-003-----0
 62
     2
  6
CONTINUOUS
 10
340.433472
 20
88.073242
 11
334.103790
 21
94.402908
  0
LINE
  8
LC-008-003-----0
 62
     2
  6
CONTINUOUS
 10
336.190826
 20
88.073242
 11
334.103790
 21
90.160271
  0
LINE
  8
LC-008-003-----0
 62
     2
  6
CONTINUOUS
 10
409.013916
 20
86.573242
 11
409.103790
 21
86.663109
  0
LINE
  8
LC-008-003-----0
 62
     2
  6
CONTINUOUS
 10
407.953278
 20
86.573242
 11
409.103790
 21
87.723770
  0
LINE
  8
LC-008-003-----0
 62
     2
  6
CONTINUOUS
 10
406.892609
 20
86.573242
 11
409.103790
 21
88.784431
  0
LINE
  8
LC-008-003-----0
 62
     2
  6
CONTINUOUS
 10
406.453796
 20
87.195091
 11
409.103790
 21
89.845093
  0
LINE
  8
LC-008-003-----0
 62
     2
  6
CONTINUOUS
 10
406.453796
 20
88.255753
 11
409.103790
 21
90.905746
  0
LINE
  8
LC-008-003-----0
 62
     2
  6
CONTINUOUS
 10
406.453796
 20
89.316414
 11
409.103790
 21
91.966408
  0
LINE
  8
LC-008-003-----0
 62
     2
  6
CONTINUOUS
 10
406.453796
 20
90.377068
 11
409.103790
 21
93.027069
  0
LINE
  8
LC-008-003-----0
 62
     2
  6
CONTINUOUS
 10
406.453796
 20
91.437729
 11
409.103790
 21
94.087730
  0
LINE
  8
LC-008-003-----0
 62
     2
  6
CONTINUOUS
 10
406.453796
 20
92.498390
 11
409.103790
 21
95.148392
  0
LINE
  8
LC-008-003-----0
 62
     2
  6
CONTINUOUS
 10
406.453796
 20
93.559052
 11
409.103790
 21
96.209053
  0
LINE
  8
LC-008-003-----0
 62
     2
  6
CONTINUOUS
 10
406.453796
 20
94.619713
 11
409.103790
 21
97.269714
  0
LINE
  8
LC-008-003-----0
 62
     2
  6
CONTINUOUS
 10
406.453796
 20
95.680374
 11
408.096680
 21
97.323242
  0
LINE
  8
LC-008-003-----0
 62
     2
  6
CONTINUOUS
 10
406.453796
 20
96.741035
 11
407.036011
 21
97.323242
  0
LINE
  8
LC-008-003-----0
 62
     2
  6
CONTINUOUS
 10
415.953796
 20
76.542549
 11
418.953796
 21
79.542549
  0
LINE
  8
LC-008-003-----0
 62
     2
  6
CONTINUOUS
 10
415.714630
 20
80.546028
 11
418.953796
 21
83.785187
  0
LINE
  8
LC-008-003-----0
 62
     2
  6
CONTINUOUS
 10
413.225037
 20
82.299065
 11
418.390533
 21
87.464561
  0
LINE
  8
LC-008-003-----0
 62
     2
  6
CONTINUOUS
 10
410.166779
 20
83.483452
 11
414.756561
 21
88.073242
  0
LINE
  8
LC-008-003-----0
 62
     2
  6
CONTINUOUS
 10
405.075623
 20
82.634918
 11
409.013916
 21
86.573242
  0
LINE
  8
LC-008-003-----0
 62
     2
  6
CONTINUOUS
 10
409.103790
 20
86.663109
 11
410.513916
 21
88.073242
  0
LINE
  8
LC-008-003-----0
 62
     2
  6
CONTINUOUS
 10
399.984436
 20
81.786392
 11
406.271301
 21
88.073242
  0
LINE
  8
LC-008-003-----0
 62
     2
  6
CONTINUOUS
 10
395.487823
 20
81.532417
 11
402.028656
 21
88.073242
  0
LINE
  8
LC-008-003-----0
 62
     2
  6
CONTINUOUS
 10
391.245178
 20
81.532417
 11
397.786011
 21
88.073242
  0
LINE
  8
LC-008-003-----0
 62
     2
  6
CONTINUOUS
 10
387.042084
 20
81.571938
 11
393.543365
 21
88.073242
  0
LINE
  8
LC-008-003-----0
 62
     2
  6
CONTINUOUS
 10
382.759918
 20
81.532417
 11
389.300720
 21
88.073242
  0
LINE
  8
LC-008-003-----0
 62
     2
  6
CONTINUOUS
 10
378.517273
 20
81.532417
 11
385.058075
 21
88.073242
  0
LINE
  8
LC-008-003-----0
 62
     2
  6
CONTINUOUS
 10
374.274628
 20
81.532417
 11
380.815460
 21
88.073242
  0
LINE
  8
LC-008-003-----0
 62
     2
  6
CONTINUOUS
 10
370.031982
 20
81.532417
 11
376.572815
 21
88.073242
  0
LINE
  8
LC-008-003-----0
 62
     2
  6
CONTINUOUS
 10
365.789337
 20
81.532417
 11
372.330170
 21
88.073242
  0
LINE
  8
LC-008-003-----0
 62
     2
  6
CONTINUOUS
 10
361.546692
 20
81.532417
 11
368.087524
 21
88.073242
  0
LINE
  8
LC-008-003-----0
 62
     2
  6
CONTINUOUS
 10
357.322174
 20
81.550537
 11
363.844879
 21
88.073242
  0
LINE
  8
LC-008-003-----0
 62
     2
  6
CONTINUOUS
 10
353.061432
 20
81.532417
 11
359.602234
 21
88.073242
  0
LINE
  8
LC-008-003-----0
 62
     2
  6
CONTINUOUS
 10
348.818787
 20
81.532417
 11
355.359589
 21
88.073242
  0
LINE
  8
LC-008-003-----0
 62
     2
  6
CONTINUOUS
 10
344.595490
 20
81.551765
 11
351.116974
 21
88.073242
  0
LINE
  8
LC-008-003-----0
 62
     2
  6
CONTINUOUS
 10
340.333496
 20
81.532417
 11
346.874329
 21
88.073242
  0
LINE
  8
LC-008-003-----0
 62
     2
  6
CONTINUOUS
 10
336.570313
 20
82.011871
 11
342.631683
 21
88.073242
  0
LINE
  8
LC-008-003-----0
 62
     2
  6
CONTINUOUS
 10
332.933746
 20
82.617958
 11
338.389038
 21
88.073242
  0
LINE
  8
LC-008-003-----0
 62
     2
  6
CONTINUOUS
 10
321.646393
 20
75.573242
 11
321.953796
 21
75.880646
  0
LINE
  8
LC-008-003-----0
 62
     2
  6
CONTINUOUS
 10
329.297211
 20
83.224052
 11
332.646393
 21
86.573242
  0
LINE
  8
LC-008-003-----0
 62
     2
  6
CONTINUOUS
 10
334.103790
 20
88.030640
 11
334.146393
 21
88.073242
  0
LINE
  8
LC-008-003-----0
 62
     2
  6
CONTINUOUS
 10
318.953796
 20
77.123283
 11
321.953796
 21
80.123283
  0
LINE
  8
LC-008-003-----0
 62
     2
  6
CONTINUOUS
 10
322.376556
 20
80.546028
 11
329.903748
 21
88.073242
  0
LINE
  8
LC-008-003-----0
 62
     2
  6
CONTINUOUS
 10
318.953796
 20
81.365921
 11
325.661102
 21
88.073242
  0
LINE
  8
LC-008-003-----0
 62
     2
  6
CONTINUOUS
 10
318.953796
 20
85.608566
 11
321.418488
 21
88.073242
  0
LINE
  8
LC-003-002-----0
 62
     1
  6
CONTINUOUS
 10
334.103790
 20
105.573242
 11
334.103790
 21
97.323242
  0
LINE
  8
LC-003-002-----0
 62
     1
  6
CONTINUOUS
 10
331.453796
 20
97.323242
 11
334.103790
 21
97.323242
  0
LINE
  8
LC-002-021-SLN-3
 62
     2
  6
CENTER
 10
191.981552
 20
120.573242
 11
191.981552
 21
-19.426765
  0
LINE
  8
LC-003-002-----0
 62
     1
  6
CONTINUOUS
 10
409.103790
 20
3.823239
 11
409.103790
 21
50.573238
  0
LINE
  8
LC-003-002-----0
 62
     1
  6
CONTINUOUS
 10
406.453796
 20
3.823239
 11
409.103790
 21
3.823239
  0
LINE
  8
LC-003-002-----0
 62
     1
  6
CONTINUOUS
 10
331.453796
 20
86.573242
 11
334.103790
 21
86.573242
  0
LINE
  8
LC-003-002-----0
 62
     1
  6
CONTINUOUS
 10
320.953796
 20
88.073242
 11
331.453796
 21
88.073242
  0
LINE
  8
LC-003-002-----0
 62
     1
  6
CONTINUOUS
 10
334.103790
 20
88.073242
 11
406.453796
 21
88.073242
  0
LINE
  8
LC-002-021-SLN-3
 62
     2
  6
CENTER
 10
121.981544
 20
50.573238
 11
261.981537
 21
50.573238
  0
LINE
  8
LC-003-002-----0
 62
     1
  6
CONTINUOUS
 10
331.453796
 20
105.573242
 11
334.103790
 21
105.573242
  0
CIRCLE
  8
LC-003-002-----0
 62
     1
  6
CONTINUOUS
 10
142.981552
 20
99.573242
 40
5.500000
  0
CIRCLE
  8
LC-003-002-----0
 62
     1
  6
CONTINUOUS
 10
142.981552
 20
1.573239
 40
5.500000
  0
CIRCLE
  8
LC-003-002-----0
 62
     1
  6
CONTINUOUS
 10
240.981552
 20
99.573242
 40
5.500000
  0
CIRCLE
  8
LC-003-002-----0
 62
     1
  6
CONTINUOUS
 10
240.981552
 20
1.573239
 40
5.500000
  0
LINE
  8
LC-002-021-SLN-3
 62
     2
  6
CENTER
 10
240.981552
 20
110.073242
 11
240.981552
 21
89.073242
  0
LINE
  8
LC-002-021-SLN-3
 62
     2
  6
CENTER
 10
142.981552
 20
110.073242
 11
142.981552
 21
89.073242
  0
LINE
  8
LC-002-021-SLN-3
 62
     2
  6
CENTER
 10
132.481552
 20
99.573242
 11
153.481552
 21
99.573242
  0
LINE
  8
LC-002-021-SLN-3
 62
     2
  6
CENTER
 10
132.481552
 20
1.573239
 11
153.481552
 21
1.573239
  0
ARC
  8
LC-003-002-----0
 62
     1
  6
CONTINUOUS
 10
142.981552
 20
99.573242
 40
16.000000
 50
90.000003
 51
180.000009
  0
ARC
  8
LC-003-002-----0
 62
     1
  6
CONTINUOUS
 10
240.981552
 20
99.573242
 40
16.000000
 50
0.000000
 51
90.000003
  0
ARC
  8
LC-003-002-----0
 62
     1
  6
CONTINUOUS
 10
240.981552
 20
1.573239
 40
16.000000
 50
269.999997
 51
0.000000
  0
ARC
  8
LC-003-002-----0
 62
     1
  6
CONTINUOUS
 10
142.981552
 20
1.573239
 40
16.000000
 50
180.000009
 51
269.999997
  0
LINE
  8
LC-003-002-----0
 62
     1
  6
CONTINUOUS
 10
142.981552
 20
-14.426761
 11
240.981552
 21
-14.426761
  0
LINE
  8
LC-002-021-SLN-3
 62
     2
  6
CENTER
 10
142.981552
 20
12.073239
 11
142.981552
 21
-8.926761
  0
LINE
  8
LC-003-002-----0
 62
     1
  6
CONTINUOUS
 10
126.981544
 20
99.573242
 11
126.981544
 21
1.573236
  0
LINE
  8
LC-003-002-----0
 62
     1
  6
CONTINUOUS
 10
142.981552
 20
115.573242
 11
240.981552
 21
115.573242
  0
LINE
  8
LC-002-021-SLN-3
 62
     2
  6
CENTER
 10
230.481552
 20
99.573242
 11
251.481552
 21
99.573242
  0
LINE
  8
LC-003-002-----0
 62
     1
  6
CONTINUOUS
 10
256.981537
 20
99.573242
 11
256.981537
 21
1.573236
  0
LINE
  8
LC-002-021-SLN-3
 62
     2
  6
CENTER
 10
230.481552
 20
1.573239
 11
251.481552
 21
1.573239
  0
LINE
  8
LC-002-021-SLN-3
 62
     2
  6
CENTER
 10
240.981552
 20
12.073239
 11
240.981552
 21
-8.926761
  0
CIRCLE
  8
LC-003-002-----0
 62
     1
  6
CONTINUOUS
 10
191.981552
 20
50.573238
 40
25.000000
  0
LINE
  8
LC-003-002-----0
 62
     1
  6
CONTINUOUS
 10
331.453796
 20
115.573242
 11
349.453796
 21
115.573242
  0
LINE
  8
LC-003-002-----0
 62
     1
  6
CONTINUOUS
 10
331.453796
 20
-14.426761
 11
349.453796
 21
-14.426761
  0
LINE
  8
LC-003-002-----0
 62
     1
  6
CONTINUOUS
 10
318.953796
 20
86.073242
 11
318.953796
 21
75.573242
  0
LINE
  8
LC-003-002-----0
 62
     1
  6
CONTINUOUS
 10
406.453796
 20
100.573242
 11
406.453796
 21
97.323242
  0
LINE
  8
LC-003-002-----0
 62
     1
  6
CONTINUOUS
 10
331.453796
 20
115.573242
 11
331.453796
 21
97.323242
  0
LINE
  8
LC-003-002-----0
 62
     1
  6
CONTINUOUS
 10
349.453796
 20
115.573242
 11
349.453796
 21
104.573242
  0
LINE
  8
LC-003-002-----0
 62
     1
  6
CONTINUOUS
 10
320.953796
 20
13.073239
 11
331.453796
 21
13.073239
  0
LINE
  8
LC-002-021-SLN-3
 62
     2
  6
CENTER
 10
293.111053
 20
50.573238
 11
439.956757
 21
50.573238
  0
LINE
  8
LC-003-002-----0
 62
     1
  6
CONTINUOUS
 10
353.453796
 20
100.573242
 11
406.453796
 21
100.573242
  0
LINE
  8
LC-003-002-----0
 62
     1
  6
CONTINUOUS
 10
353.453796
 20
0.573239
 11
406.453796
 21
0.573239
  0
LINE
  8
LC-003-002-----0
 62
     1
  6
CONTINUOUS
 10
418.953796
 20
86.073242
 11
418.953796
 21
75.573242
  0
ARC
  8
LC-003-002-----0
 62
     1
  6
CONTINUOUS
 10
320.953796
 20
86.073242
 40
2.000000
 50
90.000003
 51
180.000009
  0
ARC
  8
LC-003-002-----0
 62
     1
  6
CONTINUOUS
 10
320.953796
 20
15.073239
 40
2.000000
 50
180.000009
 51
269.999997
  0
ARC
  8
LC-003-002-----0
 62
     1
  6
CONTINUOUS
 10
416.953796
 20
15.073239
 40
2.000000
 50
269.999997
 51
0.000000
  0
ARC
  8
LC-003-002-----0
 62
     1
  6
CONTINUOUS
 10
416.953796
 20
86.073242
 40
2.000000
 50
0.000000
 51
90.000003
  0
ARC
  8
LC-003-002-----0
 62
     1
  6
CONTINUOUS
 10
353.453796
 20
104.573242
 40
4.000000
 50
180.000009
 51
269.999997
  0
LINE
  8
LC-003-002-----0
 62
     1
  6
CONTINUOUS
 10
349.453796
 20
-14.426761
 11
349.453796
 21
50.573238
  0
ARC
  8
LC-003-002-----0
 62
     1
  6
CONTINUOUS
 10
353.453796
 20
-3.426761
 40
4.000000
 50
90.000003
 51
180.000009
  0
LINE
  8
LC-003-002-----0
 62
     1
  6
CONTINUOUS
 10
409.103790
 20
13.073239
 11
416.953796
 21
13.073239
  0
LINE
  8
LC-003-002-----0
 62
     1
  6
CONTINUOUS
 10
318.953796
 20
75.573242
 11
418.953796
 21
75.573242
  0
LINE
  8
LC-003-002-----0
 62
     1
  6
CONTINUOUS
 10
297.894196
 20
25.573238
 11
318.953796
 21
25.573238
  0
LINE
  8
LC-003-002-----0
 62
     1
  6
CONTINUOUS
 10
331.453796
 20
50.573238
 11
331.453796
 21
-14.426760
  0
LINE
  8
LC-003-002-----0
 62
     1
  6
CONTINUOUS
 10
406.453796
 20
50.573238
 11
406.453796
 21
0.573240
  0
ARC
  8
LC-003-002-----0
 62
     1
  6
CONTINUOUS
 10
191.981552
 20
53.323238
 40
44.000000
 50
305.020092
 51
234.979903
  0
LINE
  8
LC-003-002-----0
 62
     1
  6
CONTINUOUS
 10
406.453796
 20
86.573242
 11
409.103790
 21
86.573242
  0
LINE
  8
LC-003-002-----0
 62
     1
  6
CONTINUOUS
 10
409.103790
 20
97.323242
 11
409.103790
 21
86.573242
  0
LINE
  8
LC-003-002-----0
 62
     1
  6
CONTINUOUS
 10
409.103790
 20
88.073242
 11
416.953796
 21
88.073242
  0
LINE
  8
LC-003-002-----0
 62
     1
  6
CONTINUOUS
 10
406.453796
 20
97.323242
 11
409.103790
 21
97.323242
  0
LINE
  8
LC-003-002-----0
 62
     1
  6
CONTINUOUS
 10
415.953796
 20
80.546028
 11
415.953796
 21
75.573242
  0
CIRCLE
  8
LC-003-002-----0
 62
     1
  6
CONTINUOUS
 10
362.953796
 20
78.573242
 40
3.000000
  0
CIRCLE
  8
LC-003-002-----0
 62
     1
  6
CONTINUOUS
 10
368.953796
 20
78.573242
 40
3.000000
  0
CIRCLE
  8
LC-003-002-----0
 62
     1
  6
CONTINUOUS
 10
374.953796
 20
78.573242
 40
3.000000
  0
CIRCLE
  8
LC-003-002-----0
 62
     1
  6
CONTINUOUS
 10
380.953796
 20
78.573242
 40
3.000000
  0
CIRCLE
  8
LC-003-002-----0
 62
     1
  6
CONTINUOUS
 10
191.981552
 20
50.573238
 40
37.500000
  0
CIRCLE
  8
LC-003-002-----0
 62
     1
  6
CONTINUOUS
 10
386.953796
 20
78.573242
 40
3.000000
  0
CIRCLE
  8
LC-003-002-----0
 62
     1
  6
CONTINUOUS
 10
392.953796
 20
78.573242
 40
3.000000
  0
LINE
  8
LC-003-002-----0
 62
     1
  6
CONTINUOUS
 10
166.731552
 20
17.289400
 11
169.793457
 21
6.127701
  0
LINE
  8
LC-003-002-----0
 62
     1
  6
CONTINUOUS
 10
176.540817
 20
-0.281543
 11
189.231552
 21
-3.070835
  0
LINE
  8
LC-003-002-----0
 62
     1
  6
CONTINUOUS
 10
194.731552
 20
-3.070835
 11
207.422272
 21
-0.281543
  0
LINE
  8
LC-003-002-----0
 62
     1
  6
CONTINUOUS
 10
217.231552
 20
17.289400
 11
214.169632
 21
6.127701
  0
CIRCLE
  8
LC-003-002-----0
 62
     1
  6
CONTINUOUS
 10
203.231552
 20
5.929165
 40
4.250000
  0
CIRCLE
  8
LC-003-002-----0
 62
     1
  6
CONTINUOUS
 10
398.953796
 20
78.573242
 40
3.000000
  0
CIRCLE
  8
LC-003-002-----0
 62
     1
  6
CONTINUOUS
 10
180.731552
 20
5.929165
 40
4.250000
  0
ARC
  8
LC-003-002-----0
 62
     1
  6
CONTINUOUS
 10
178.472809
 20
8.508645
 40
9.000000
 50
195.340176
 51
257.604072
  0
ARC
  8
LC-003-002-----0
 62
     1
  6
CONTINUOUS
 10
205.490280
 20
8.508645
 40
9.000000
 50
282.395923
 51
344.659819
  0
LINE
  8
LC-003-002-----0
 62
     1
  6
CONTINUOUS
 10
194.731552
 20
13.174208
 11
194.731552
 21
-3.070835
  0
LINE
  8
LC-003-002-----0
 62
     1
  6
CONTINUOUS
 10
189.231552
 20
13.174208
 11
189.231552
 21
-3.070835
  0
CIRCLE
  8
LC-003-002-----0
 62
     1
  6
CONTINUOUS
 10
404.872162
 20
79.559631
 40
3.000000
  0
CIRCLE
  8
LC-003-002-----0
 62
     1
  6
CONTINUOUS
 10
410.790527
 20
80.546028
 40
3.000000
  0
LINE
  8
LC-003-002-----0
 62
     1
  6
CONTINUOUS
 10
398.460602
 20
81.532417
 11
410.297333
 21
83.505211
  0
LINE
  8
LC-003-002-----0
 62
     1
  6
CONTINUOUS
 10
411.283722
 20
77.586845
 11
399.446991
 21
75.614059
  0
CIRCLE
  8
LC-003-002-----0
 62
     1
  6
CONTINUOUS
 10
356.953796
 20
78.573242
 40
3.000000
  0
CIRCLE
  8
LC-003-002-----0
 62
     1
  6
CONTINUOUS
 10
350.953796
 20
78.573242
 40
3.000000
  0
CIRCLE
  8
LC-003-002-----0
 62
     1
  6
CONTINUOUS
 10
344.953796
 20
78.573242
 40
3.000000
  0
CIRCLE
  8
LC-003-002-----0
 62
     1
  6
CONTINUOUS
 10
338.953796
 20
78.573242
 40
3.000000
  0
CIRCLE
  8
LC-003-002-----0
 62
     1
  6
CONTINUOUS
 10
333.035431
 20
79.559631
 40
3.000000
  0
CIRCLE
  8
LC-003-002-----0
 62
     1
  6
CONTINUOUS
 10
327.117065
 20
80.546028
 40
3.000000
  0
LINE
  8
LC-003-002-----0
 62
     1
  6
CONTINUOUS
 10
339.446991
 20
81.532417
 11
327.610260
 21
83.505211
  0
LINE
  8
LC-003-002-----0
 62
     1
  6
CONTINUOUS
 10
326.623871
 20
77.586845
 11
338.460602
 21
75.614059
  0
LINE
  8
LC-003-002-----0
 62
     1
  6
CONTINUOUS
 10
398.460602
 20
81.532417
 11
339.446991
 21
81.532417
  0
LINE
  8
LC-003-002-----0
 62
     1
  6
CONTINUOUS
 10
413.790527
 20
80.546028
 11
415.953796
 21
80.546028
  0
LINE
  8
LC-003-002-----0
 62
     1
  6
CONTINUOUS
 10
321.953796
 20
80.546028
 11
321.953796
 21
75.573242
  0
LINE
  8
LC-003-002-----0
 62
     1
  6
CONTINUOUS
 10
324.117065
 20
80.546028
 11
321.953796
 21
80.546028
  0
LINE
  8
LC-003-002-----0
 62
     1
  6
CONTINUOUS
 10
331.453796
 20
97.323242
 11
331.453796
 21
86.573242
  0
LINE
  8
LC-003-002-----0
 62
     1
  6
CONTINUOUS
 10
334.103790
 20
97.323242
 11
334.103790
 21
86.573242
  0
LINE
  8
LC-003-002-----0
 62
     1
  6
CONTINUOUS
 10
406.453796
 20
97.323242
 11
406.453796
 21
86.573242
  0
CIRCLE
  8
LC-003-002-----0
 62
     1
  6
CONTINUOUS
 10
191.981552
 20
50.573238
 40
55.000000
  0
LINE
  8
LC-002-021-SLN-3
 62
     2
  6
CENTER
 10
326.453796
 20
1.573239
 11
354.453796
 21
1.573239
  0
LINE
  8
LC-001-150-----0
 62
     2
  6
DASHED
 10
331.453796
 20
7.073239
 11
349.453796
 21
7.073239
  0
LINE
  8
LC-001-150-----0
 62
     2
  6
DASHED
 10
331.453796
 20
-3.926761
 11
349.453796
 21
-3.926761
  0
LINE
  8
LC-003-002-----0
 62
     1
  6
CONTINUOUS
 10
418.953796
 20
25.573238
 11
437.424469
 21
25.573238
  0
LINE
  8
LC-003-002-----0
 62
     1
  6
CONTINUOUS
 10
298.428284
 20
75.573242
 11
318.953796
 21
75.573242
  0
LINE
  8
LC-003-002-----0
 62
     1
  6
CONTINUOUS
 10
418.953796
 20
75.573242
 11
435.664154
 21
75.573242
  0
LINE
  8
LC-008-003-----0
 62
     2
  6
CONTINUOUS
 10
297.894196
 20
25.573238
 11
296.551941
 21
36.271397
  0
LINE
  8
LC-008-003-----0
 62
     2
  6
CONTINUOUS
 10
296.551941
 20
36.271397
 11
298.293335
 21
52.245064
  0
LINE
  8
LC-008-003-----0
 62
     2
  6
CONTINUOUS
 10
298.293335
 20
52.245064
 11
297.422638
 21
67.124641
  0
LINE
  8
LC-008-003-----0
 62
     2
  6
CONTINUOUS
 10
297.422638
 20
67.124641
 11
298.428284
 21
75.573242
  0
LINE
  8
LC-008-003-----0
 62
     2
  6
CONTINUOUS
 10
437.424469
 20
25.573238
 11
437.894775
 21
34.083221
  0
LINE
  8
LC-008-003-----0
 62
     2
  6
CONTINUOUS
 10
437.894775
 20
34.083221
 11
435.282684
 21
48.743984
  0
LINE
  8
LC-008-003-----0
 62
     2
  6
CONTINUOUS
 10
435.282684
 20
48.743984
 11
436.733856
 21
65.592918
  0
LINE
  8
LC-008-003-----0
 62
     2
  6
CONTINUOUS
 10
436.733856
 20
65.592918
 11
435.664154
 21
75.573242
  0
LINE
  8
LC-003-002-----0
 62
     1
  6
CONTINUOUS
 10
318.953796
 20
50.573238
 11
318.953796
 21
15.073240
  0
LINE
  8
LC-003-002-----0
 62
     1
  6
CONTINUOUS
 10
418.953796
 20
50.573238
 11
418.953796
 21
15.073240
  0
ENDSEC
  0
EOF
