  0
SECTION
  2
HEADER
  9
$LIMMIN
 10
63.585407
 20
476.421295
  9
$LIMMAX
 10
169.025269
 20
527.247864
  9
$EXTMIN
 10
63.585407
 20
476.421295
  9
$EXTMAX
 10
169.025269
 20
527.247864
  0
ENDSEC
  0
SECTION
  2
TABLES
  0
TABLE
  2
LTYPE
 70
     3
  0
LTYPE
  2
CONTINUOUS
 70
    64
  3
Ausgezogene Linie
 72
    65
 73
     0
 40
0.0
  0
LTYPE
  2
DASHED
 70
    64
  3
__ __ __ __ __ __ __ __ __ __ __ __ __ __ __
 72
    65
 73
     2
 40
0.75
 49
0.5
 49
-0.25
  0
LTYPE
  2
DASHDOT
 70
    64
  3
__ . __ . __ . __ . __ . __ . __ . __ . __ . __
 72
    65
 73
     4
 40
1.0
 49
0.5
 49
-0.25
 49
0.0
 49
-0.25
  0
ENDTAB
  0
TABLE
  2
LAYER
 70
     4
  0
LAYER
  2
LC-INFO-1-1-MM-A1-0
 70
    64
 62
     7
  6
CONTINUOUS
  0
LAYER
  2
LC-003-002-----0
 70
    64
 62
     7
  6
CONTINUOUS
  0
LAYER
  2
LC-004-006-----0
 70
    64
 62
     7
  6
CONTINUOUS
  0
LAYER
  2
LC-006-012-----0
 70
    64
 62
     7
  6
CONTINUOUS
  0
ENDTAB
  0
TABLE
  2
STYLE
 70
     1
  0
STYLE
  2
TXT8
 70
    64
 40
0.0
 41
1.0
 50
0.0
 71
     0
 42
3.500000
  3
TXT8
  4

  0
ENDTAB
  0
ENDSEC
  0
SECTION
  2
BLOCKS
  0
ENDSEC
  0
SECTION
  2
ENTITIES
  0
ARC
  8
LC-003-002-----0
 62
     1
  6
CONTINUOUS
 10
152.765701
 20
497.721313
 40
2.249024
 50
0.755207
 51
39.056483
  0
ARC
  8
LC-003-002-----0
 62
     1
  6
CONTINUOUS
 10
151.843948
 20
496.967896
 40
3.439493
 50
39.127507
 51
67.872157
  0
ARC
  8
LC-003-002-----0
 62
     1
  6
CONTINUOUS
 10
151.286453
 20
495.722260
 40
4.803626
 50
67.308830
 51
90.261633
  0
ARC
  8
LC-003-002-----0
 62
     1
  6
CONTINUOUS
 10
151.242584
 20
495.722260
 40
4.803626
 50
89.738365
 51
112.691168
  0
ARC
  8
LC-003-002-----0
 62
     1
  6
CONTINUOUS
 10
150.685089
 20
496.967896
 40
3.439493
 50
112.127848
 51
140.872488
  0
ARC
  8
LC-003-002-----0
 62
     1
  6
CONTINUOUS
 10
149.763351
 20
497.721313
 40
2.249024
 50
140.943522
 51
179.244791
  0
ARC
  8
LC-003-002-----0
 62
     1
  6
CONTINUOUS
 10
149.763351
 20
497.780609
 40
2.249024
 50
180.755209
 51
219.056478
  0
ARC
  8
LC-003-002-----0
 62
     1
  6
CONTINUOUS
 10
150.685089
 20
498.533997
 40
3.439493
 50
219.127512
 51
247.872152
  0
ARC
  8
LC-003-002-----0
 62
     1
  6
CONTINUOUS
 10
151.242584
 20
499.779663
 40
4.803626
 50
247.308832
 51
270.261635
  0
ARC
  8
LC-003-002-----0
 62
     1
  6
CONTINUOUS
 10
151.286453
 20
499.779663
 40
4.803626
 50
269.738367
 51
292.691170
  0
ARC
  8
LC-003-002-----0
 62
     1
  6
CONTINUOUS
 10
151.843948
 20
498.533997
 40
3.439493
 50
292.127843
 51
320.872493
  0
ARC
  8
LC-003-002-----0
 62
     1
  6
CONTINUOUS
 10
152.765701
 20
497.780609
 40
2.249024
 50
320.943517
 51
359.244793
  0
ARC
  8
LC-003-002-----0
 62
     1
  6
CONTINUOUS
 10
150.084839
 20
499.170593
 40
5.179708
 50
359.834872
 51
26.293756
  0
ARC
  8
LC-003-002-----0
 62
     1
  6
CONTINUOUS
 10
150.809189
 20
499.549988
 40
4.362282
 50
26.040410
 51
55.746378
  0
ARC
  8
LC-003-002-----0
 62
     1
  6
CONTINUOUS
 10
151.247284
 20
500.177307
 40
3.597205
 50
55.890308
 51
89.725443
  0
ARC
  8
LC-003-002-----0
 62
     1
  6
CONTINUOUS
 10
151.281769
 20
500.177307
 40
3.597205
 50
90.274556
 51
124.109687
  0
ARC
  8
LC-003-002-----0
 62
     1
  6
CONTINUOUS
 10
151.719864
 20
499.549988
 40
4.362282
 50
124.253627
 51
153.959595
  0
ARC
  8
LC-003-002-----0
 62
     1
  6
CONTINUOUS
 10
152.444214
 20
499.170593
 40
5.179708
 50
153.706249
 51
180.165122
  0
ARC
  8
LC-003-002-----0
 62
     1
  6
CONTINUOUS
 10
152.444214
 20
499.140717
 40
5.179708
 50
179.834878
 51
206.293751
  0
ARC
  8
LC-003-002-----0
 62
     1
  6
CONTINUOUS
 10
151.719864
 20
498.761322
 40
4.362282
 50
206.040405
 51
235.746373
  0
ARC
  8
LC-003-002-----0
 62
     1
  6
CONTINUOUS
 10
151.281769
 20
498.134033
 40
3.597205
 50
235.890313
 51
269.725444
  0
ARC
  8
LC-003-002-----0
 62
     1
  6
CONTINUOUS
 10
151.247284
 20
498.134033
 40
3.597205
 50
270.274557
 51
304.109692
  0
ARC
  8
LC-003-002-----0
 62
     1
  6
CONTINUOUS
 10
150.809189
 20
498.761322
 40
4.362282
 50
304.253622
 51
333.959590
  0
ARC
  8
LC-003-002-----0
 62
     1
  6
CONTINUOUS
 10
150.084839
 20
499.140717
 40
5.179708
 50
333.706244
 51
0.165128
  0
LINE
  8
LC-003-002-----0
 62
     1
  6
CONTINUOUS
 10
67.818161
 20
517.031311
 11
67.818161
 21
487.031311
  0
LINE
  8
LC-003-002-----0
 62
     1
  6
CONTINUOUS
 10
73.818161
 20
481.031311
 11
75.539101
 21
481.031311
  0
LINE
  8
LC-003-002-----0
 62
     1
  6
CONTINUOUS
 10
73.818161
 20
523.031311
 11
103.818161
 21
523.031311
  0
LINE
  8
LC-003-002-----0
 62
     1
  6
CONTINUOUS
 10
109.818161
 20
517.031311
 11
109.818161
 21
487.031311
  0
LINE
  8
LC-004-006-----0
 62
     2
  6
DASHDOT
 10
88.818161
 20
527.247864
 11
88.818161
 21
476.421295
  0
LINE
  8
LC-004-006-----0
 62
     2
  6
DASHDOT
 10
63.585407
 20
502.031311
 11
115.129456
 21
502.031311
  0
LINE
  8
LC-004-006-----0
 62
     2
  6
DASHDOT
 10
73.818161
 20
521.355225
 11
73.818161
 21
512.628906
  0
LINE
  8
LC-004-006-----0
 62
     2
  6
DASHDOT
 10
69.565643
 20
517.031311
 11
78.347092
 21
517.031311
  0
CIRCLE
  8
LC-003-002-----0
 62
     1
  6
CONTINUOUS
 10
73.818161
 20
517.031311
 40
2.750000
  0
ARC
  8
LC-003-002-----0
 62
     1
  6
CONTINUOUS
 10
73.818161
 20
517.031311
 40
6.000000
 50
90.000003
 51
180.000009
  0
ARC
  8
LC-003-002-----0
 62
     1
  6
CONTINUOUS
 10
103.818161
 20
517.031311
 40
6.000000
 50
0.000000
 51
90.000003
  0
LINE
  8
LC-004-006-----0
 62
     2
  6
DASHDOT
 10
103.818161
 20
521.355225
 11
103.818161
 21
512.628906
  0
LINE
  8
LC-004-006-----0
 62
     2
  6
DASHDOT
 10
108.070679
 20
517.031311
 11
99.289230
 21
517.031311
  0
CIRCLE
  8
LC-003-002-----0
 62
     1
  6
CONTINUOUS
 10
103.818161
 20
517.031311
 40
2.750000
  0
LINE
  8
LC-004-006-----0
 62
     2
  6
DASHDOT
 10
69.565643
 20
487.031311
 11
78.347092
 21
487.031311
  0
CIRCLE
  8
LC-003-002-----0
 62
     1
  6
CONTINUOUS
 10
73.818161
 20
487.031311
 40
2.750000
  0
LINE
  8
LC-004-006-----0
 62
     2
  6
DASHDOT
 10
73.818161
 20
482.707397
 11
73.818161
 21
491.433685
  0
ARC
  8
LC-003-002-----0
 62
     1
  6
CONTINUOUS
 10
73.818161
 20
487.031311
 40
6.000000
 50
180.000009
 51
269.999997
  0
LINE
  8
LC-004-006-----0
 62
     2
  6
DASHDOT
 10
103.818161
 20
482.707397
 11
103.818161
 21
491.433685
  0
LINE
  8
LC-004-006-----0
 62
     2
  6
DASHDOT
 10
108.070679
 20
487.031311
 11
99.289230
 21
487.031311
  0
CIRCLE
  8
LC-003-002-----0
 62
     1
  6
CONTINUOUS
 10
103.818161
 20
487.031311
 40
2.750000
  0
ARC
  8
LC-003-002-----0
 62
     1
  6
CONTINUOUS
 10
103.818161
 20
487.031311
 40
6.000000
 50
269.999997
 51
0.000000
  0
ARC
  8
LC-003-002-----0
 62
     1
  6
CONTINUOUS
 10
88.818161
 20
502.031311
 40
6.000000
 50
249.594070
 51
230.405930
  0
ARC
  8
LC-003-002-----0
 62
     1
  6
CONTINUOUS
 10
88.818161
 20
502.031311
 40
11.500000
 50
244.988548
 51
235.011459
  0
LINE
  8
LC-006-012-----0
 62
     2
  6
DASHED
 10
74.715271
 20
497.483002
 11
82.456940
 21
493.013336
  0
LINE
  8
LC-003-002-----0
 62
     1
  6
CONTINUOUS
 10
84.994095
 20
497.407837
 11
75.539101
 21
481.031311
  0
LINE
  8
LC-003-002-----0
 62
     1
  6
CONTINUOUS
 10
86.726143
 20
496.407837
 11
77.848503
 21
481.031311
  0
LINE
  8
LC-003-002-----0
 62
     1
  6
CONTINUOUS
 10
77.848503
 20
481.031311
 11
103.818161
 21
481.031311
  0
LINE
  8
LC-004-006-----0
 62
     2
  6
DASHDOT
 10
66.917747
 20
499.675507
 11
90.374062
 21
486.132996
  0
LINE
  8
LC-006-012-----0
 62
     2
  6
DASHED
 10
71.715271
 20
492.286865
 11
75.715271
 21
499.215057
  0
LINE
  8
LC-003-002-----0
 62
     1
  6
CONTINUOUS
 10
82.456940
 20
493.013336
 11
84.188995
 21
492.013336
  0
LINE
  8
LC-006-012-----0
 62
     2
  6
DASHED
 10
84.188995
 20
492.013336
 11
88.344177
 21
489.614349
  0
LINE
  8
LC-003-002-----0
 62
     1
  6
CONTINUOUS
 10
146.264526
 20
523.031311
 11
156.264526
 21
523.031311
  0
LINE
  8
LC-003-002-----0
 62
     1
  6
CONTINUOUS
 10
146.264526
 20
481.031311
 11
156.264526
 21
481.031311
  0
LINE
  8
LC-003-002-----0
 62
     1
  6
CONTINUOUS
 10
145.264526
 20
522.031311
 11
145.264526
 21
482.031311
  0
LINE
  8
LC-003-002-----0
 62
     1
  6
CONTINUOUS
 10
157.264526
 20
522.031311
 11
157.264526
 21
482.031311
  0
LINE
  8
LC-003-002-----0
 62
     1
  6
CONTINUOUS
 10
165.264526
 20
512.531311
 11
165.264526
 21
491.531311
  0
LINE
  8
LC-003-002-----0
 62
     1
  6
CONTINUOUS
 10
158.264526
 20
513.531311
 11
164.264526
 21
513.531311
  0
LINE
  8
LC-003-002-----0
 62
     1
  6
CONTINUOUS
 10
158.264526
 20
490.531311
 11
164.264526
 21
490.531311
  0
ARC
  8
LC-003-002-----0
 62
     1
  6
CONTINUOUS
 10
146.264526
 20
482.031311
 40
1.000000
 50
180.000009
 51
269.999997
  0
ARC
  8
LC-003-002-----0
 62
     1
  6
CONTINUOUS
 10
158.264526
 20
514.531311
 40
1.000000
 50
180.000009
 51
269.999997
  0
ARC
  8
LC-003-002-----0
 62
     1
  6
CONTINUOUS
 10
158.264526
 20
489.531311
 40
1.000000
 50
90.000003
 51
180.000009
  0
LINE
  8
LC-004-006-----0
 62
     2
  6
DASHDOT
 10
141.340561
 20
502.031311
 11
169.025269
 21
502.031311
  0
ARC
  8
LC-003-002-----0
 62
     1
  6
CONTINUOUS
 10
156.264526
 20
482.031311
 40
1.000000
 50
269.999997
 51
0.000000
  0
ARC
  8
LC-003-002-----0
 62
     1
  6
CONTINUOUS
 10
156.264526
 20
522.031311
 40
1.000000
 50
0.000000
 51
90.000003
  0
ARC
  8
LC-003-002-----0
 62
     1
  6
CONTINUOUS
 10
146.264526
 20
522.031311
 40
1.000000
 50
90.000003
 51
180.000009
  0
ARC
  8
LC-003-002-----0
 62
     1
  6
CONTINUOUS
 10
164.264526
 20
512.531311
 40
1.000000
 50
0.000000
 51
90.000003
  0
ARC
  8
LC-003-002-----0
 62
     1
  6
CONTINUOUS
 10
164.264526
 20
491.531311
 40
1.000000
 50
269.999997
 51
0.000000
  0
LINE
  8
LC-006-012-----0
 62
     2
  6
DASHED
 10
67.818161
 20
494.536865
 11
71.715271
 21
492.286865
  0
LINE
  8
LC-004-006-----0
 62
     2
  6
DASHDOT
 10
151.264526
 20
492.489838
 11
151.264526
 21
506.370636
  0
LINE
  8
LC-006-012-----0
 62
     2
  6
DASHED
 10
67.818161
 20
503.774445
 11
75.715271
 21
499.215057
  0
LINE
  8
LC-006-012-----0
 62
     2
  6
DASHED
 10
72.515274
 20
493.672485
 11
80.256943
 21
489.202850
  0
LINE
  8
LC-004-006-----0
 62
     2
  6
DASHDOT
 10
146.001404
 20
499.155670
 11
156.758896
 21
499.155670
  0
LINE
  8
LC-004-006-----0
 62
     2
  6
DASHDOT
 10
141.749695
 20
517.031311
 11
160.433456
 21
517.031311
  0
LINE
  8
LC-006-012-----0
 62
     2
  6
DASHED
 10
74.915276
 20
497.829407
 11
82.656944
 21
493.359772
  0
LINE
  8
LC-006-012-----0
 62
     2
  6
DASHED
 10
145.264526
 20
519.781311
 11
157.264526
 21
519.781311
  0
LINE
  8
LC-006-012-----0
 62
     2
  6
DASHED
 10
145.264526
 20
514.281311
 11
157.264526
 21
514.281311
  0
LINE
  8
LC-004-006-----0
 62
     2
  6
DASHDOT
 10
141.749695
 20
487.031311
 11
160.433456
 21
487.031311
  0
LINE
  8
LC-006-012-----0
 62
     2
  6
DASHED
 10
145.264526
 20
484.281311
 11
157.264526
 21
484.281311
  0
LINE
  8
LC-006-012-----0
 62
     2
  6
DASHED
 10
145.264526
 20
489.781311
 11
157.264526
 21
489.781311
  0
LINE
  8
LC-006-012-----0
 62
     2
  6
DASHED
 10
145.264526
 20
508.031311
 11
165.264526
 21
508.031311
  0
LINE
  8
LC-006-012-----0
 62
     2
  6
DASHED
 10
145.264526
 20
496.031311
 11
165.264526
 21
496.031311
  0
LINE
  8
LC-006-012-----0
 62
     2
  6
DASHED
 10
72.715271
 20
494.018890
 11
80.456940
 21
489.549255
  0
LINE
  8
LC-003-002-----0
 62
     1
  6
CONTINUOUS
 10
80.456940
 20
489.549255
 11
82.188995
 21
488.549255
  0
LINE
  8
LC-006-012-----0
 62
     2
  6
DASHED
 10
82.188995
 20
488.549255
 11
86.344177
 21
486.150238
  0
LINE
  8
LC-006-012-----0
 62
     2
  6
DASHED
 10
88.344177
 20
489.088959
 11
83.961494
 21
491.619324
  0
LINE
  8
LC-006-012-----0
 62
     2
  6
CONTINUOUS
 10
83.961494
 20
491.619324
 11
82.229446
 21
492.619324
  0
LINE
  8
LC-006-012-----0
 62
     2
  6
DASHED
 10
82.229446
 20
492.619324
 11
76.306427
 21
496.038971
  0
LINE
  8
LC-006-012-----0
 62
     2
  6
DASHED
 10
86.799179
 20
486.412933
 11
82.416496
 21
488.943298
  0
LINE
  8
LC-006-012-----0
 62
     2
  6
CONTINUOUS
 10
82.416496
 20
488.943298
 11
80.684441
 21
489.943298
  0
LINE
  8
LC-006-012-----0
 62
     2
  6
DASHED
 10
80.684441
 20
489.943298
 11
74.761429
 21
493.362946
  0
LINE
  8
LC-006-012-----0
 62
     2
  6
DASHED
 10
75.465271
 20
498.782043
 11
71.965271
 21
492.719879
  0
LINE
  8
LC-006-012-----0
 62
     2
  6
DASHED
 10
72.607391
 20
500.432037
 11
75.465271
 21
498.782043
  0
ARC
  8
LC-006-012-----0
 62
     2
  6
DASHED
 10
72.257393
 20
499.825836
 40
0.700000
 50
60.000002
 51
149.999997
  0
LINE
  8
LC-006-012-----0
 62
     2
  6
DASHED
 10
68.851173
 20
495.326080
 11
71.651169
 21
500.175812
  0
LINE
  8
LC-006-012-----0
 62
     2
  6
DASHED
 10
69.107391
 20
494.369873
 11
71.965271
 21
492.719879
  0
ARC
  8
LC-006-012-----0
 62
     2
  6
DASHED
 10
69.457390
 20
494.976074
 40
0.700000
 50
149.999997
 51
239.999997
  0
LINE
  8
LC-006-012-----0
 62
     2
  6
DASHED
 10
86.344177
 20
486.150238
 11
86.799179
 21
486.412933
  0
LINE
  8
LC-006-012-----0
 62
     2
  6
DASHED
 10
88.344177
 20
489.614349
 11
88.344177
 21
489.088959
  0
LINE
  8
LC-006-012-----0
 62
     2
  6
DASHED
 10
88.344177
 20
489.088959
 11
86.799179
 21
486.412933
  0
LINE
  8
LC-006-012-----0
 62
     2
  6
DASHED
 10
88.344177
 20
489.614349
 11
86.344177
 21
486.150238
  0
LINE
  8
LC-006-012-----0
 62
     2
  6
DASHED
 10
76.533928
 20
496.433014
 11
74.533928
 21
492.968903
  0
LINE
  8
LC-003-002-----0
 62
     1
  6
CONTINUOUS
 10
149.964523
 20
499.483002
 11
152.564529
 21
499.483002
  0
LINE
  8
LC-003-002-----0
 62
     1
  6
CONTINUOUS
 10
149.964523
 20
496.018890
 11
152.564529
 21
496.018890
  0
LINE
  8
LC-003-002-----0
 62
     1
  6
CONTINUOUS
 10
148.964523
 20
497.750946
 11
149.964523
 21
499.483002
  0
LINE
  8
LC-003-002-----0
 62
     1
  6
CONTINUOUS
 10
153.564529
 20
497.750946
 11
152.564529
 21
499.483002
  0
LINE
  8
LC-003-002-----0
 62
     1
  6
CONTINUOUS
 10
148.964523
 20
497.750946
 11
149.964523
 21
496.018890
  0
LINE
  8
LC-003-002-----0
 62
     1
  6
CONTINUOUS
 10
153.564529
 20
497.750946
 11
152.564529
 21
496.018890
  0
LINE
  8
LC-003-002-----0
 62
     1
  6
CONTINUOUS
 10
149.964523
 20
498.308014
 11
152.564529
 21
498.308014
  0
LINE
  8
LC-003-002-----0
 62
     1
  6
CONTINUOUS
 10
149.964523
 20
499.483002
 11
149.964523
 21
498.308014
  0
LINE
  8
LC-003-002-----0
 62
     1
  6
CONTINUOUS
 10
152.564529
 20
499.483002
 11
152.564529
 21
498.308014
  0
LINE
  8
LC-003-002-----0
 62
     1
  6
CONTINUOUS
 10
149.303711
 20
497.163452
 11
149.964523
 21
498.308014
  0
LINE
  8
LC-003-002-----0
 62
     1
  6
CONTINUOUS
 10
153.225327
 20
497.163452
 11
152.564529
 21
498.308014
  0
ENDSEC
  0
EOF
