  0
SECTION
  2
HEADER
  9
$LIMMIN
 10
57.048649
 20
349.158661
  9
$LIMMAX
 10
178.973465
 20
409.329498
  9
$EXTMIN
 10
57.048649
 20
349.158661
  9
$EXTMAX
 10
178.973465
 20
409.329498
  0
ENDSEC
  0
SECTION
  2
TABLES
  0
TABLE
  2
LTYPE
 70
     3
  0
LTYPE
  2
CONTINUOUS
 70
    64
  3
Ausgezogene Linie
 72
    65
 73
     0
 40
0.0
  0
LTYPE
  2
DASHED
 70
    64
  3
__ __ __ __ __ __ __ __ __ __ __ __ __ __ __
 72
    65
 73
     2
 40
0.75
 49
0.5
 49
-0.25
  0
LTYPE
  2
DASHDOT
 70
    64
  3
__ . __ . __ . __ . __ . __ . __ . __ . __ . __
 72
    65
 73
     4
 40
1.0
 49
0.5
 49
-0.25
 49
0.0
 49
-0.25
  0
ENDTAB
  0
TABLE
  2
LAYER
 70
     4
  0
LAYER
  2
LC-INFO-1-1-MM-A1-0
 70
    64
 62
     7
  6
CONTINUOUS
  0
LAYER
  2
LC-003-002-----0
 70
    64
 62
     7
  6
CONTINUOUS
  0
LAYER
  2
LC-004-006-----0
 70
    64
 62
     7
  6
CONTINUOUS
  0
LAYER
  2
LC-006-012-----0
 70
    64
 62
     7
  6
CONTINUOUS
  0
ENDTAB
  0
TABLE
  2
STYLE
 70
     1
  0
STYLE
  2
TXT8
 70
    64
 40
0.0
 41
1.0
 50
0.0
 71
     0
 42
3.500000
  3
TXT8
  4

  0
ENDTAB
  0
ENDSEC
  0
SECTION
  2
BLOCKS
  0
ENDSEC
  0
SECTION
  2
ENTITIES
  0
ARC
  8
LC-003-002-----0
 62
     1
  6
CONTINUOUS
 10
163.047668
 20
374.148163
 40
2.247012
 50
0.760759
 51
39.104407
  0
ARC
  8
LC-003-002-----0
 62
     1
  6
CONTINUOUS
 10
162.121338
 20
373.389893
 40
3.444114
 50
39.173293
 51
67.906178
  0
ARC
  8
LC-003-002-----0
 62
     1
  6
CONTINUOUS
 10
161.561066
 20
372.136200
 40
4.816711
 50
67.340071
 51
90.262220
  0
ARC
  8
LC-003-002-----0
 62
     1
  6
CONTINUOUS
 10
161.516968
 20
372.136200
 40
4.816711
 50
89.737778
 51
112.659927
  0
ARC
  8
LC-003-002-----0
 62
     1
  6
CONTINUOUS
 10
160.956696
 20
373.389893
 40
3.444114
 50
112.093820
 51
140.826712
  0
ARC
  8
LC-003-002-----0
 62
     1
  6
CONTINUOUS
 10
160.030365
 20
374.148163
 40
2.247012
 50
140.895587
 51
179.239245
  0
ARC
  8
LC-003-002-----0
 62
     1
  6
CONTINUOUS
 10
160.030365
 20
374.207825
 40
2.247012
 50
180.760755
 51
219.104413
  0
ARC
  8
LC-003-002-----0
 62
     1
  6
CONTINUOUS
 10
160.956696
 20
374.966095
 40
3.444114
 50
219.173288
 51
247.906180
  0
ARC
  8
LC-003-002-----0
 62
     1
  6
CONTINUOUS
 10
161.516968
 20
376.219788
 40
4.816711
 50
247.340073
 51
270.262222
  0
ARC
  8
LC-003-002-----0
 62
     1
  6
CONTINUOUS
 10
161.561066
 20
376.219788
 40
4.816711
 50
269.737780
 51
292.659929
  0
ARC
  8
LC-003-002-----0
 62
     1
  6
CONTINUOUS
 10
162.121338
 20
374.966095
 40
3.444114
 50
292.093822
 51
320.826707
  0
ARC
  8
LC-003-002-----0
 62
     1
  6
CONTINUOUS
 10
163.047668
 20
374.207825
 40
2.247012
 50
320.895593
 51
359.239241
  0
ARC
  8
LC-003-002-----0
 62
     1
  6
CONTINUOUS
 10
160.359329
 20
375.597626
 40
5.179708
 50
359.834872
 51
26.293756
  0
ARC
  8
LC-003-002-----0
 62
     1
  6
CONTINUOUS
 10
161.083679
 20
375.977020
 40
4.362282
 50
26.040410
 51
55.746378
  0
ARC
  8
LC-003-002-----0
 62
     1
  6
CONTINUOUS
 10
161.521790
 20
376.604340
 40
3.597205
 50
55.890308
 51
89.725443
  0
ARC
  8
LC-003-002-----0
 62
     1
  6
CONTINUOUS
 10
161.556259
 20
376.604340
 40
3.597205
 50
90.274556
 51
124.109687
  0
ARC
  8
LC-003-002-----0
 62
     1
  6
CONTINUOUS
 10
161.994354
 20
375.977020
 40
4.362282
 50
124.253627
 51
153.959595
  0
ARC
  8
LC-003-002-----0
 62
     1
  6
CONTINUOUS
 10
162.718704
 20
375.597626
 40
5.179708
 50
153.706249
 51
180.165122
  0
ARC
  8
LC-003-002-----0
 62
     1
  6
CONTINUOUS
 10
162.718704
 20
375.567780
 40
5.179708
 50
179.834878
 51
206.293751
  0
ARC
  8
LC-003-002-----0
 62
     1
  6
CONTINUOUS
 10
161.994354
 20
375.188354
 40
4.362282
 50
206.040405
 51
235.746373
  0
ARC
  8
LC-003-002-----0
 62
     1
  6
CONTINUOUS
 10
161.556259
 20
374.561066
 40
3.597205
 50
235.890313
 51
269.725444
  0
ARC
  8
LC-003-002-----0
 62
     1
  6
CONTINUOUS
 10
161.521790
 20
374.561066
 40
3.597205
 50
270.274557
 51
304.109692
  0
ARC
  8
LC-003-002-----0
 62
     1
  6
CONTINUOUS
 10
161.083679
 20
375.188354
 40
4.362282
 50
304.253622
 51
333.959590
  0
ARC
  8
LC-003-002-----0
 62
     1
  6
CONTINUOUS
 10
160.359329
 20
375.567780
 40
5.179708
 50
333.706244
 51
0.165128
  0
LINE
  8
LC-004-006-----0
 62
     2
  6
DASHDOT
 10
156.072739
 20
375.582703
 11
166.791656
 21
375.582703
  0
LINE
  8
LC-003-002-----0
 62
     1
  6
CONTINUOUS
 10
62.288597
 20
396.148926
 11
62.288597
 21
361.148926
  0
LINE
  8
LC-003-002-----0
 62
     1
  6
CONTINUOUS
 10
69.788597
 20
353.648926
 11
71.700142
 21
353.648926
  0
LINE
  8
LC-003-002-----0
 62
     1
  6
CONTINUOUS
 10
69.788597
 20
403.648926
 11
104.788597
 21
403.648926
  0
LINE
  8
LC-003-002-----0
 62
     1
  6
CONTINUOUS
 10
112.288597
 20
396.148926
 11
112.288597
 21
361.148926
  0
LINE
  8
LC-004-006-----0
 62
     2
  6
DASHDOT
 10
57.048649
 20
378.648926
 11
117.187164
 21
378.648926
  0
LINE
  8
LC-004-006-----0
 62
     2
  6
DASHDOT
 10
87.288597
 20
409.329498
 11
87.288597
 21
349.158661
  0
LINE
  8
LC-004-006-----0
 62
     2
  6
DASHDOT
 10
64.142738
 20
396.148926
 11
75.428787
 21
396.148926
  0
LINE
  8
LC-004-006-----0
 62
     2
  6
DASHDOT
 10
69.788597
 20
401.428253
 11
69.788597
 21
390.609680
  0
CIRCLE
  8
LC-003-002-----0
 62
     1
  6
CONTINUOUS
 10
69.788597
 20
396.148926
 40
2.750000
  0
ARC
  8
LC-003-002-----0
 62
     1
  6
CONTINUOUS
 10
69.788597
 20
396.148926
 40
7.500000
 50
90.000003
 51
180.000009
  0
LINE
  8
LC-004-006-----0
 62
     2
  6
DASHDOT
 10
110.434464
 20
396.148926
 11
99.148415
 21
396.148926
  0
LINE
  8
LC-004-006-----0
 62
     2
  6
DASHDOT
 10
104.788597
 20
401.428253
 11
104.788597
 21
390.609680
  0
CIRCLE
  8
LC-003-002-----0
 62
     1
  6
CONTINUOUS
 10
104.788597
 20
396.148926
 40
2.750000
  0
ARC
  8
LC-003-002-----0
 62
     1
  6
CONTINUOUS
 10
104.788597
 20
396.148926
 40
7.500000
 50
0.000000
 51
90.000003
  0
LINE
  8
LC-004-006-----0
 62
     2
  6
DASHDOT
 10
110.434464
 20
361.148926
 11
99.148415
 21
361.148926
  0
LINE
  8
LC-004-006-----0
 62
     2
  6
DASHDOT
 10
104.788597
 20
355.869598
 11
104.788597
 21
366.688202
  0
CIRCLE
  8
LC-003-002-----0
 62
     1
  6
CONTINUOUS
 10
104.788597
 20
361.148926
 40
2.750000
  0
LINE
  8
LC-004-006-----0
 62
     2
  6
DASHDOT
 10
64.142738
 20
361.148926
 11
75.428787
 21
361.148926
  0
LINE
  8
LC-004-006-----0
 62
     2
  6
DASHDOT
 10
69.788597
 20
355.869598
 11
69.788597
 21
366.688202
  0
CIRCLE
  8
LC-003-002-----0
 62
     1
  6
CONTINUOUS
 10
69.788597
 20
361.148926
 40
2.750000
  0
ARC
  8
LC-003-002-----0
 62
     1
  6
CONTINUOUS
 10
69.788597
 20
361.148926
 40
7.500000
 50
180.000009
 51
269.999997
  0
ARC
  8
LC-003-002-----0
 62
     1
  6
CONTINUOUS
 10
104.788597
 20
361.148926
 40
7.500000
 50
269.999997
 51
0.000000
  0
ARC
  8
LC-003-002-----0
 62
     1
  6
CONTINUOUS
 10
87.288597
 20
378.648926
 40
8.000000
 50
247.180759
 51
232.819241
  0
LINE
  8
LC-004-006-----0
 62
     2
  6
DASHDOT
 10
161.539017
 20
369.163269
 11
161.539017
 21
381.362244
  0
LINE
  8
LC-003-002-----0
 62
     1
  6
CONTINUOUS
 10
74.009544
 20
353.648926
 11
104.788597
 21
353.648926
  0
LINE
  8
LC-003-002-----0
 62
     1
  6
CONTINUOUS
 10
82.453949
 20
372.275085
 11
71.700142
 21
353.648926
  0
LINE
  8
LC-003-002-----0
 62
     1
  6
CONTINUOUS
 10
84.185997
 20
371.275085
 11
74.009544
 21
353.648926
  0
LINE
  8
LC-004-006-----0
 62
     2
  6
DASHDOT
 10
89.611084
 20
359.808044
 11
59.954090
 21
376.930511
  0
LINE
  8
LC-006-012-----0
 62
     2
  6
DASHED
 10
69.185715
 20
373.910034
 11
76.927383
 21
369.440399
  0
LINE
  8
LC-006-012-----0
 62
     2
  6
DASHED
 10
66.185715
 20
368.713898
 11
70.185715
 21
375.642090
  0
LINE
  8
LC-003-002-----0
 62
     1
  6
CONTINUOUS
 10
79.844849
 20
367.755981
 11
81.576904
 21
366.755981
  0
LINE
  8
LC-006-012-----0
 62
     2
  6
DASHED
 10
81.576904
 20
366.755981
 11
85.732086
 21
364.356995
  0
LINE
  8
LC-006-012-----0
 62
     2
  6
DASHED
 10
62.288597
 20
370.963898
 11
66.185715
 21
368.713898
  0
LINE
  8
LC-006-012-----0
 62
     2
  6
DASHED
 10
66.985710
 20
370.099518
 11
77.644852
 21
363.945465
  0
LINE
  8
LC-006-012-----0
 62
     2
  6
DASHED
 10
69.385712
 20
374.256439
 11
80.044853
 21
368.102386
  0
LINE
  8
LC-006-012-----0
 62
     2
  6
DASHED
 10
67.185715
 20
370.445953
 11
77.844849
 21
364.291870
  0
LINE
  8
LC-003-002-----0
 62
     1
  6
CONTINUOUS
 10
77.844849
 20
364.291870
 11
79.576904
 21
363.291870
  0
LINE
  8
LC-006-012-----0
 62
     2
  6
DASHED
 10
79.576904
 20
363.291870
 11
83.732086
 21
360.892883
  0
LINE
  8
LC-006-012-----0
 62
     2
  6
DASHED
 10
85.732086
 20
363.831604
 11
81.349403
 21
366.361938
  0
LINE
  8
LC-006-012-----0
 62
     2
  6
CONTINUOUS
 10
81.349403
 20
366.361938
 11
79.617348
 21
367.361938
  0
LINE
  8
LC-006-012-----0
 62
     2
  6
DASHED
 10
79.617348
 20
367.361938
 11
70.776863
 21
372.466003
  0
LINE
  8
LC-006-012-----0
 62
     2
  6
DASHED
 10
84.187088
 20
361.155579
 11
79.804398
 21
363.685913
  0
LINE
  8
LC-006-012-----0
 62
     2
  6
CONTINUOUS
 10
79.804398
 20
363.685913
 11
78.072350
 21
364.685913
  0
LINE
  8
LC-006-012-----0
 62
     2
  6
DASHED
 10
78.072350
 20
364.685913
 11
69.231865
 21
369.789978
  0
LINE
  8
LC-006-012-----0
 62
     2
  6
DASHED
 10
69.935715
 20
375.209076
 11
66.435715
 21
369.146912
  0
LINE
  8
LC-006-012-----0
 62
     2
  6
DASHED
 10
67.077827
 20
376.859070
 11
69.935715
 21
375.209076
  0
ARC
  8
LC-006-012-----0
 62
     2
  6
DASHED
 10
66.727829
 20
376.252869
 40
0.700000
 50
60.000002
 51
149.999997
  0
LINE
  8
LC-006-012-----0
 62
     2
  6
DASHED
 10
63.321609
 20
371.753113
 11
66.121613
 21
376.602875
  0
LINE
  8
LC-006-012-----0
 62
     2
  6
DASHED
 10
63.577827
 20
370.796906
 11
66.435715
 21
369.146912
  0
ARC
  8
LC-006-012-----0
 62
     2
  6
DASHED
 10
63.927830
 20
371.403107
 40
0.700000
 50
149.999997
 51
239.999997
  0
LINE
  8
LC-006-012-----0
 62
     2
  6
DASHED
 10
83.732086
 20
360.892883
 11
84.187088
 21
361.155579
  0
LINE
  8
LC-006-012-----0
 62
     2
  6
DASHED
 10
85.732086
 20
364.356995
 11
85.732086
 21
363.831604
  0
LINE
  8
LC-006-012-----0
 62
     2
  6
DASHED
 10
85.732086
 20
363.831604
 11
84.187088
 21
361.155579
  0
LINE
  8
LC-006-012-----0
 62
     2
  6
DASHED
 10
85.732086
 20
364.356995
 11
83.732086
 21
360.892883
  0
LINE
  8
LC-006-012-----0
 62
     2
  6
DASHED
 10
71.004364
 20
372.860046
 11
69.004364
 21
369.395935
  0
LINE
  8
LC-006-012-----0
 62
     2
  6
DASHED
 10
62.288597
 20
380.201508
 11
70.185715
 21
375.642090
  0
ARC
  8
LC-003-002-----0
 62
     1
  6
CONTINUOUS
 10
87.288597
 20
378.648926
 40
13.500000
 50
244.248019
 51
235.751974
  0
LINE
  8
LC-003-002-----0
 62
     1
  6
CONTINUOUS
 10
157.039017
 20
403.648926
 11
166.039017
 21
403.648926
  0
LINE
  8
LC-003-002-----0
 62
     1
  6
CONTINUOUS
 10
157.039017
 20
353.648926
 11
166.039017
 21
353.648926
  0
LINE
  8
LC-003-002-----0
 62
     1
  6
CONTINUOUS
 10
155.539017
 20
402.148926
 11
155.539017
 21
355.148926
  0
LINE
  8
LC-003-002-----0
 62
     1
  6
CONTINUOUS
 10
167.539017
 20
402.148926
 11
167.539017
 21
355.148926
  0
LINE
  8
LC-003-002-----0
 62
     1
  6
CONTINUOUS
 10
175.539017
 20
391.148926
 11
175.539017
 21
366.148926
  0
LINE
  8
LC-003-002-----0
 62
     1
  6
CONTINUOUS
 10
168.539017
 20
392.148926
 11
174.539017
 21
392.148926
  0
LINE
  8
LC-003-002-----0
 62
     1
  6
CONTINUOUS
 10
168.539017
 20
365.148926
 11
174.539017
 21
365.148926
  0
ARC
  8
LC-003-002-----0
 62
     1
  6
CONTINUOUS
 10
157.039017
 20
355.148926
 40
1.500000
 50
180.000009
 51
269.999997
  0
ARC
  8
LC-003-002-----0
 62
     1
  6
CONTINUOUS
 10
166.039017
 20
355.148926
 40
1.500000
 50
269.999997
 51
0.000000
  0
ARC
  8
LC-003-002-----0
 62
     1
  6
CONTINUOUS
 10
157.039017
 20
402.148926
 40
1.500000
 50
90.000003
 51
180.000009
  0
ARC
  8
LC-003-002-----0
 62
     1
  6
CONTINUOUS
 10
166.039017
 20
402.148926
 40
1.500000
 50
0.000000
 51
90.000003
  0
ARC
  8
LC-003-002-----0
 62
     1
  6
CONTINUOUS
 10
168.539017
 20
393.148926
 40
1.000000
 50
180.000009
 51
269.999997
  0
ARC
  8
LC-003-002-----0
 62
     1
  6
CONTINUOUS
 10
168.539017
 20
364.148926
 40
1.000000
 50
90.000003
 51
180.000009
  0
ARC
  8
LC-003-002-----0
 62
     1
  6
CONTINUOUS
 10
174.539017
 20
366.148926
 40
1.000000
 50
269.999997
 51
0.000000
  0
ARC
  8
LC-003-002-----0
 62
     1
  6
CONTINUOUS
 10
174.539017
 20
391.148926
 40
1.000000
 50
0.000000
 51
90.000003
  0
LINE
  8
LC-004-006-----0
 62
     2
  6
DASHDOT
 10
150.615814
 20
378.648926
 11
178.973465
 21
378.648926
  0
LINE
  8
LC-004-006-----0
 62
     2
  6
DASHDOT
 10
153.022293
 20
396.148926
 11
170.548889
 21
396.148926
  0
LINE
  8
LC-006-012-----0
 62
     2
  6
DASHED
 10
155.539017
 20
398.898926
 11
167.539017
 21
398.898926
  0
LINE
  8
LC-006-012-----0
 62
     2
  6
DASHED
 10
155.539017
 20
393.398926
 11
167.539017
 21
393.398926
  0
LINE
  8
LC-004-006-----0
 62
     2
  6
DASHDOT
 10
153.022293
 20
361.148926
 11
170.548889
 21
361.148926
  0
LINE
  8
LC-006-012-----0
 62
     2
  6
DASHED
 10
155.539017
 20
358.398926
 11
167.539017
 21
358.398926
  0
LINE
  8
LC-006-012-----0
 62
     2
  6
DASHED
 10
155.539017
 20
363.898926
 11
167.539017
 21
363.898926
  0
LINE
  8
LC-006-012-----0
 62
     2
  6
DASHED
 10
155.539017
 20
386.648926
 11
175.539017
 21
386.648926
  0
LINE
  8
LC-006-012-----0
 62
     2
  6
DASHED
 10
155.539017
 20
370.648926
 11
175.539017
 21
370.648926
  0
LINE
  8
LC-003-002-----0
 62
     1
  6
CONTINUOUS
 10
160.239014
 20
375.910034
 11
162.839020
 21
375.910034
  0
LINE
  8
LC-003-002-----0
 62
     1
  6
CONTINUOUS
 10
160.239014
 20
372.445953
 11
162.839020
 21
372.445953
  0
LINE
  8
LC-003-002-----0
 62
     1
  6
CONTINUOUS
 10
159.239014
 20
374.177979
 11
160.239014
 21
375.910034
  0
LINE
  8
LC-003-002-----0
 62
     1
  6
CONTINUOUS
 10
163.839020
 20
374.177979
 11
162.839020
 21
375.910034
  0
LINE
  8
LC-003-002-----0
 62
     1
  6
CONTINUOUS
 10
159.239014
 20
374.177979
 11
160.239014
 21
372.445953
  0
LINE
  8
LC-003-002-----0
 62
     1
  6
CONTINUOUS
 10
163.839020
 20
374.177979
 11
162.839020
 21
372.445953
  0
LINE
  8
LC-003-002-----0
 62
     1
  6
CONTINUOUS
 10
160.239014
 20
374.735046
 11
160.239014
 21
375.910034
  0
LINE
  8
LC-003-002-----0
 62
     1
  6
CONTINUOUS
 10
162.839020
 20
374.735046
 11
162.839020
 21
375.910034
  0
LINE
  8
LC-003-002-----0
 62
     1
  6
CONTINUOUS
 10
160.239014
 20
374.735046
 11
162.839020
 21
374.735046
  0
LINE
  8
LC-003-002-----0
 62
     1
  6
CONTINUOUS
 10
159.578217
 20
373.590485
 11
160.239014
 21
374.735046
  0
LINE
  8
LC-003-002-----0
 62
     1
  6
CONTINUOUS
 10
163.499832
 20
373.590485
 11
162.839020
 21
374.735046
  0
ENDSEC
  0
EOF
