  0
SECTION
  2
HEADER
  9
$LIMMIN
 10
56.590839
 20
217.726913
  9
$LIMMAX
 10
189.544815
 20
282.051605
  9
$EXTMIN
 10
56.590839
 20
217.726913
  9
$EXTMAX
 10
189.544815
 20
282.051605
  0
ENDSEC
  0
SECTION
  2
TABLES
  0
TABLE
  2
LTYPE
 70
     3
  0
LTYPE
  2
CONTINUOUS
 70
    64
  3
Ausgezogene Linie
 72
    65
 73
     0
 40
0.0
  0
LTYPE
  2
DASHED
 70
    64
  3
__ __ __ __ __ __ __ __ __ __ __ __ __ __ __
 72
    65
 73
     2
 40
0.75
 49
0.5
 49
-0.25
  0
LTYPE
  2
DASHDOT
 70
    64
  3
__ . __ . __ . __ . __ . __ . __ . __ . __ . __
 72
    65
 73
     4
 40
1.0
 49
0.5
 49
-0.25
 49
0.0
 49
-0.25
  0
ENDTAB
  0
TABLE
  2
LAYER
 70
     4
  0
LAYER
  2
LC-INFO-1-1-MM-A1-0
 70
    64
 62
     7
  6
CONTINUOUS
  0
LAYER
  2
LC-003-002-----0
 70
    64
 62
     7
  6
CONTINUOUS
  0
LAYER
  2
LC-004-006-----0
 70
    64
 62
     7
  6
CONTINUOUS
  0
LAYER
  2
LC-006-012-----0
 70
    64
 62
     7
  6
CONTINUOUS
  0
ENDTAB
  0
TABLE
  2
STYLE
 70
     1
  0
STYLE
  2
TXT8
 70
    64
 40
0.0
 41
1.0
 50
0.0
 71
     0
 42
3.500000
  3
TXT8
  4

  0
ENDTAB
  0
ENDSEC
  0
SECTION
  2
BLOCKS
  0
ENDSEC
  0
SECTION
  2
ENTITIES
  0
ARC
  8
LC-003-002-----0
 62
     1
  6
CONTINUOUS
 10
170.297104
 20
243.791428
 40
3.356970
 50
0.516885
 51
36.830497
  0
ARC
  8
LC-003-002-----0
 62
     1
  6
CONTINUOUS
 10
169.288177
 20
243.021729
 40
4.625935
 50
36.970096
 51
66.213712
  0
ARC
  8
LC-003-002-----0
 62
     1
  6
CONTINUOUS
 10
168.677948
 20
241.749161
 40
6.036708
 50
65.785384
 51
90.227885
  0
ARC
  8
LC-003-002-----0
 62
     1
  6
CONTINUOUS
 10
168.629929
 20
241.749161
 40
6.036708
 50
89.772120
 51
114.214615
  0
ARC
  8
LC-003-002-----0
 62
     1
  6
CONTINUOUS
 10
168.019699
 20
243.021729
 40
4.625935
 50
113.786287
 51
143.029899
  0
ARC
  8
LC-003-002-----0
 62
     1
  6
CONTINUOUS
 10
167.010773
 20
243.791428
 40
3.356970
 50
143.169508
 51
179.483110
  0
ARC
  8
LC-003-002-----0
 62
     1
  6
CONTINUOUS
 10
167.010773
 20
243.852005
 40
3.356970
 50
180.516890
 51
216.830492
  0
ARC
  8
LC-003-002-----0
 62
     1
  6
CONTINUOUS
 10
168.019699
 20
244.621689
 40
4.625935
 50
216.970101
 51
246.213713
  0
ARC
  8
LC-003-002-----0
 62
     1
  6
CONTINUOUS
 10
168.629929
 20
245.894272
 40
6.036708
 50
245.785385
 51
270.227880
  0
ARC
  8
LC-003-002-----0
 62
     1
  6
CONTINUOUS
 10
168.677948
 20
245.894272
 40
6.036708
 50
269.772115
 51
294.214616
  0
ARC
  8
LC-003-002-----0
 62
     1
  6
CONTINUOUS
 10
169.288177
 20
244.621689
 40
4.625935
 50
293.786288
 51
323.029904
  0
ARC
  8
LC-003-002-----0
 62
     1
  6
CONTINUOUS
 10
170.297104
 20
243.852005
 40
3.356970
 50
323.169503
 51
359.483115
  0
ARC
  8
LC-003-002-----0
 62
     1
  6
CONTINUOUS
 10
167.031860
 20
245.829376
 40
7.122098
 50
359.834872
 51
26.293756
  0
ARC
  8
LC-003-002-----0
 62
     1
  6
CONTINUOUS
 10
168.027832
 20
246.351059
 40
5.998138
 50
26.040410
 51
55.746378
  0
ARC
  8
LC-003-002-----0
 62
     1
  6
CONTINUOUS
 10
168.630234
 20
247.213593
 40
4.946157
 50
55.890308
 51
89.725443
  0
ARC
  8
LC-003-002-----0
 62
     1
  6
CONTINUOUS
 10
168.677643
 20
247.213593
 40
4.946157
 50
90.274556
 51
124.109687
  0
ARC
  8
LC-003-002-----0
 62
     1
  6
CONTINUOUS
 10
169.280029
 20
246.351059
 40
5.998138
 50
124.253627
 51
153.959595
  0
ARC
  8
LC-003-002-----0
 62
     1
  6
CONTINUOUS
 10
170.276001
 20
245.829376
 40
7.122098
 50
153.706249
 51
180.165122
  0
ARC
  8
LC-003-002-----0
 62
     1
  6
CONTINUOUS
 10
170.276001
 20
245.788315
 40
7.122098
 50
179.834878
 51
206.293751
  0
ARC
  8
LC-003-002-----0
 62
     1
  6
CONTINUOUS
 10
169.280029
 20
245.266632
 40
5.998138
 50
206.040405
 51
235.746373
  0
ARC
  8
LC-003-002-----0
 62
     1
  6
CONTINUOUS
 10
168.677643
 20
244.404099
 40
4.946157
 50
235.890313
 51
269.725444
  0
ARC
  8
LC-003-002-----0
 62
     1
  6
CONTINUOUS
 10
168.630234
 20
244.404099
 40
4.946157
 50
270.274557
 51
304.109692
  0
ARC
  8
LC-003-002-----0
 62
     1
  6
CONTINUOUS
 10
168.027832
 20
245.266632
 40
5.998138
 50
304.253622
 51
333.959590
  0
ARC
  8
LC-003-002-----0
 62
     1
  6
CONTINUOUS
 10
167.031860
 20
245.788315
 40
7.122098
 50
333.706244
 51
0.165128
  0
LINE
  8
LC-003-002-----0
 62
     1
  6
CONTINUOUS
 10
62.288597
 20
268.220398
 11
62.288597
 21
230.220367
  0
LINE
  8
LC-003-002-----0
 62
     1
  6
CONTINUOUS
 10
70.288597
 20
222.220383
 11
72.545441
 21
222.220383
  0
LINE
  8
LC-003-002-----0
 62
     1
  6
CONTINUOUS
 10
70.288597
 20
276.220398
 11
108.288597
 21
276.220398
  0
LINE
  8
LC-003-002-----0
 62
     1
  6
CONTINUOUS
 10
116.288597
 20
268.220398
 11
116.288597
 21
230.220367
  0
LINE
  8
LC-004-006-----0
 62
     2
  6
DASHDOT
 10
89.288597
 20
217.726913
 11
89.288597
 21
282.051605
  0
LINE
  8
LC-004-006-----0
 62
     2
  6
DASHDOT
 10
56.590839
 20
249.220383
 11
120.767578
 21
249.220383
  0
LINE
  8
LC-004-006-----0
 62
     2
  6
DASHDOT
 10
70.288597
 20
261.705688
 11
70.288597
 21
273.557770
  0
LINE
  8
LC-004-006-----0
 62
     2
  6
DASHDOT
 10
64.408569
 20
268.220398
 11
75.696724
 21
268.220398
  0
CIRCLE
  8
LC-003-002-----0
 62
     1
  6
CONTINUOUS
 10
70.288597
 20
268.220398
 40
3.300000
  0
ARC
  8
LC-003-002-----0
 62
     1
  6
CONTINUOUS
 10
70.288597
 20
268.220398
 40
8.000000
 50
90.000003
 51
180.000009
  0
LINE
  8
LC-004-006-----0
 62
     2
  6
DASHDOT
 10
108.288597
 20
261.705688
 11
108.288597
 21
273.557770
  0
LINE
  8
LC-004-006-----0
 62
     2
  6
DASHDOT
 10
114.168625
 20
268.220398
 11
102.880478
 21
268.220398
  0
CIRCLE
  8
LC-003-002-----0
 62
     1
  6
CONTINUOUS
 10
108.288597
 20
268.220398
 40
3.300000
  0
ARC
  8
LC-003-002-----0
 62
     1
  6
CONTINUOUS
 10
108.288597
 20
268.220398
 40
8.000000
 50
0.000000
 51
90.000003
  0
LINE
  8
LC-004-006-----0
 62
     2
  6
DASHDOT
 10
108.288597
 20
236.735092
 11
108.288597
 21
224.882996
  0
LINE
  8
LC-004-006-----0
 62
     2
  6
DASHDOT
 10
114.168625
 20
230.220383
 11
102.880478
 21
230.220383
  0
CIRCLE
  8
LC-003-002-----0
 62
     1
  6
CONTINUOUS
 10
108.288597
 20
230.220383
 40
3.300000
  0
LINE
  8
LC-004-006-----0
 62
     2
  6
DASHDOT
 10
70.288597
 20
236.735092
 11
70.288597
 21
224.882996
  0
LINE
  8
LC-004-006-----0
 62
     2
  6
DASHDOT
 10
64.408569
 20
230.220383
 11
75.696724
 21
230.220383
  0
CIRCLE
  8
LC-003-002-----0
 62
     1
  6
CONTINUOUS
 10
70.288597
 20
230.220383
 40
3.300000
  0
ARC
  8
LC-003-002-----0
 62
     1
  6
CONTINUOUS
 10
70.288597
 20
230.220383
 40
8.000000
 50
180.000009
 51
269.999997
  0
ARC
  8
LC-003-002-----0
 62
     1
  6
CONTINUOUS
 10
108.288597
 20
230.220383
 40
8.000000
 50
269.999997
 51
0.000000
  0
LINE
  8
LC-006-012-----0
 62
     2
  6
DASHED
 10
73.677574
 20
245.584274
 11
62.288593
 21
252.159698
  0
ARC
  8
LC-003-002-----0
 62
     1
  6
CONTINUOUS
 10
89.288597
 20
249.220383
 40
10.000000
 50
245.739172
 51
234.260835
  0
ARC
  8
LC-003-002-----0
 62
     1
  6
CONTINUOUS
 10
89.288597
 20
249.220383
 40
16.500000
 50
243.474596
 51
236.525397
  0
LINE
  8
LC-003-002-----0
 62
     1
  6
CONTINUOUS
 10
74.854843
 20
222.220383
 11
108.288597
 21
222.220383
  0
LINE
  8
LC-003-002-----0
 62
     1
  6
CONTINUOUS
 10
83.447639
 20
241.103546
 11
72.545441
 21
222.220383
  0
LINE
  8
LC-003-002-----0
 62
     1
  6
CONTINUOUS
 10
85.179688
 20
240.103546
 11
74.854843
 21
222.220383
  0
LINE
  8
LC-004-006-----0
 62
     2
  6
DASHDOT
 10
91.527420
 20
228.927795
 11
60.173485
 21
247.029999
  0
LINE
  8
LC-006-012-----0
 62
     2
  6
DASHED
 10
68.177574
 20
236.057983
 11
62.288593
 21
239.457993
  0
LINE
  8
LC-006-012-----0
 62
     2
  6
DASHED
 10
72.426559
 20
243.419785
 11
81.695335
 21
238.068466
  0
LINE
  8
LC-006-012-----0
 62
     2
  6
DASHED
 10
73.677574
 20
245.584274
 11
68.177574
 21
236.057983
  0
LINE
  8
LC-003-002-----0
 62
     1
  6
CONTINUOUS
 10
81.695335
 20
238.068466
 11
83.427383
 21
237.068466
  0
LINE
  8
LC-006-012-----0
 62
     2
  6
DASHED
 10
81.945335
 20
238.501480
 11
72.677574
 21
243.852219
  0
LINE
  8
LC-006-012-----0
 62
     2
  6
DASHED
 10
78.445335
 20
232.439301
 11
69.177574
 21
237.790039
  0
LINE
  8
LC-006-012-----0
 62
     2
  6
DASHED
 10
83.427383
 20
237.068466
 11
89.422066
 21
233.607422
  0
LINE
  8
LC-006-012-----0
 62
     2
  6
DASHED
 10
69.426559
 20
238.223633
 11
78.695335
 21
232.872314
  0
LINE
  8
LC-003-002-----0
 62
     1
  6
CONTINUOUS
 10
78.695335
 20
232.872314
 11
80.427383
 21
231.872314
  0
LINE
  8
LC-006-012-----0
 62
     2
  6
DASHED
 10
80.427383
 20
231.872314
 11
86.422066
 21
228.411270
  0
LINE
  8
LC-006-012-----0
 62
     2
  6
DASHED
 10
87.072067
 20
228.786560
 11
80.752380
 21
232.435226
  0
LINE
  8
LC-006-012-----0
 62
     2
  6
CONTINUOUS
 10
80.752380
 20
232.435226
 11
79.020332
 21
233.435226
  0
LINE
  8
LC-006-012-----0
 62
     2
  6
DASHED
 10
79.020332
 20
233.435226
 11
72.349640
 21
237.286560
  0
LINE
  8
LC-006-012-----0
 62
     2
  6
DASHED
 10
89.422066
 20
232.856873
 11
83.102379
 21
236.505539
  0
LINE
  8
LC-006-012-----0
 62
     2
  6
CONTINUOUS
 10
83.102379
 20
236.505539
 11
81.370331
 21
237.505539
  0
LINE
  8
LC-006-012-----0
 62
     2
  6
DASHED
 10
81.370331
 20
237.505539
 11
74.699638
 21
241.356873
  0
LINE
  8
LC-003-002-----0
 62
     1
  6
CONTINUOUS
 10
162.903931
 20
276.220398
 11
174.403931
 21
276.220398
  0
LINE
  8
LC-003-002-----0
 62
     1
  6
CONTINUOUS
 10
162.903931
 20
222.220383
 11
174.403931
 21
222.220383
  0
LINE
  8
LC-003-002-----0
 62
     1
  6
CONTINUOUS
 10
161.653931
 20
274.970398
 11
161.653931
 21
223.470367
  0
LINE
  8
LC-003-002-----0
 62
     1
  6
CONTINUOUS
 10
175.653931
 20
274.970398
 11
175.653931
 21
223.470367
  0
LINE
  8
LC-003-002-----0
 62
     1
  6
CONTINUOUS
 10
184.653931
 20
264.470398
 11
184.653931
 21
233.970367
  0
LINE
  8
LC-003-002-----0
 62
     1
  6
CONTINUOUS
 10
176.903931
 20
265.720398
 11
183.403931
 21
265.720398
  0
LINE
  8
LC-003-002-----0
 62
     1
  6
CONTINUOUS
 10
176.903931
 20
232.720383
 11
183.403931
 21
232.720383
  0
ARC
  8
LC-003-002-----0
 62
     1
  6
CONTINUOUS
 10
183.403931
 20
264.470398
 40
1.250000
 50
0.000000
 51
90.000003
  0
ARC
  8
LC-003-002-----0
 62
     1
  6
CONTINUOUS
 10
183.403931
 20
233.970383
 40
1.250000
 50
269.999997
 51
0.000000
  0
ARC
  8
LC-003-002-----0
 62
     1
  6
CONTINUOUS
 10
162.903931
 20
223.470383
 40
1.250000
 50
180.000009
 51
269.999997
  0
ARC
  8
LC-003-002-----0
 62
     1
  6
CONTINUOUS
 10
174.403931
 20
223.470383
 40
1.250000
 50
269.999997
 51
0.000000
  0
ARC
  8
LC-003-002-----0
 62
     1
  6
CONTINUOUS
 10
162.903931
 20
274.970398
 40
1.250000
 50
90.000003
 51
180.000009
  0
ARC
  8
LC-003-002-----0
 62
     1
  6
CONTINUOUS
 10
174.403931
 20
274.970398
 40
1.250000
 50
0.000000
 51
90.000003
  0
ARC
  8
LC-003-002-----0
 62
     1
  6
CONTINUOUS
 10
176.903931
 20
266.970398
 40
1.250000
 50
180.000009
 51
269.999997
  0
ARC
  8
LC-003-002-----0
 62
     1
  6
CONTINUOUS
 10
176.903931
 20
231.470383
 40
1.250000
 50
90.000003
 51
180.000009
  0
LINE
  8
LC-004-006-----0
 62
     2
  6
DASHDOT
 10
157.650986
 20
249.220383
 11
189.544815
 21
249.220383
  0
LINE
  8
LC-006-012-----0
 62
     2
  6
DASHED
 10
161.653931
 20
259.220398
 11
184.653931
 21
259.220398
  0
LINE
  8
LC-006-012-----0
 62
     2
  6
DASHED
 10
161.653931
 20
239.220383
 11
184.653931
 21
239.220383
  0
LINE
  8
LC-004-006-----0
 62
     2
  6
DASHDOT
 10
157.650986
 20
268.220398
 11
180.147415
 21
268.220398
  0
LINE
  8
LC-006-012-----0
 62
     2
  6
DASHED
 10
161.653931
 20
271.520386
 11
175.653931
 21
271.520386
  0
LINE
  8
LC-006-012-----0
 62
     2
  6
DASHED
 10
161.653931
 20
264.920380
 11
175.653931
 21
264.920380
  0
LINE
  8
LC-004-006-----0
 62
     2
  6
DASHDOT
 10
157.650986
 20
230.220383
 11
180.147415
 21
230.220383
  0
LINE
  8
LC-006-012-----0
 62
     2
  6
DASHED
 10
161.653931
 20
226.920380
 11
175.653931
 21
226.920380
  0
LINE
  8
LC-006-012-----0
 62
     2
  6
DASHED
 10
161.653931
 20
233.520386
 11
175.653931
 21
233.520386
  0
LINE
  8
LC-004-006-----0
 62
     2
  6
DASHDOT
 10
168.653931
 20
237.482590
 11
168.653931
 21
254.390335
  0
LINE
  8
LC-004-006-----0
 62
     2
  6
DASHDOT
 10
162.272415
 20
245.808838
 11
175.193726
 21
245.808838
  0
LINE
  8
LC-006-012-----0
 62
     2
  6
DASHED
 10
73.426559
 20
245.151840
 11
68.426559
 21
236.491592
  0
LINE
  8
LC-006-012-----0
 62
     2
  6
DASHED
 10
69.096436
 20
247.651840
 11
73.426559
 21
245.151840
  0
ARC
  8
LC-006-012-----0
 62
     2
  6
DASHED
 10
68.596436
 20
246.785812
 40
1.000000
 50
60.000002
 51
149.999997
  0
LINE
  8
LC-006-012-----0
 62
     2
  6
DASHED
 10
63.730408
 20
240.357605
 11
67.730408
 21
247.285812
  0
LINE
  8
LC-006-012-----0
 62
     2
  6
DASHED
 10
64.096436
 20
238.991592
 11
68.426559
 21
236.491592
  0
ARC
  8
LC-006-012-----0
 62
     2
  6
DASHED
 10
64.596436
 20
239.857605
 40
1.000000
 50
149.999997
 51
239.999997
  0
LINE
  8
LC-006-012-----0
 62
     2
  6
DASHED
 10
86.422066
 20
228.411270
 11
87.072067
 21
228.786560
  0
LINE
  8
LC-006-012-----0
 62
     2
  6
DASHED
 10
89.422066
 20
233.607422
 11
89.422066
 21
232.856873
  0
LINE
  8
LC-006-012-----0
 62
     2
  6
DASHED
 10
89.422066
 20
232.856873
 11
87.072067
 21
228.786560
  0
LINE
  8
LC-006-012-----0
 62
     2
  6
DASHED
 10
89.422066
 20
233.607422
 11
86.422066
 21
228.411270
  0
LINE
  8
LC-006-012-----0
 62
     2
  6
DASHED
 10
75.024635
 20
241.919785
 11
72.024635
 21
236.723633
  0
LINE
  8
LC-003-002-----0
 62
     1
  6
CONTINUOUS
 10
166.142456
 20
242.771713
 11
166.142456
 21
244.871719
  0
LINE
  8
LC-003-002-----0
 62
     1
  6
CONTINUOUS
 10
171.165405
 20
242.771713
 11
171.165405
 21
244.871719
  0
LINE
  8
LC-003-002-----0
 62
     1
  6
CONTINUOUS
 10
168.653931
 20
241.321716
 11
166.142456
 21
242.771713
  0
LINE
  8
LC-003-002-----0
 62
     1
  6
CONTINUOUS
 10
168.653931
 20
246.321716
 11
166.142456
 21
244.871719
  0
LINE
  8
LC-003-002-----0
 62
     1
  6
CONTINUOUS
 10
168.653931
 20
241.321716
 11
171.165405
 21
242.771713
  0
LINE
  8
LC-003-002-----0
 62
     1
  6
CONTINUOUS
 10
168.653931
 20
246.321716
 11
171.165405
 21
244.871719
  0
LINE
  8
LC-003-002-----0
 62
     1
  6
CONTINUOUS
 10
168.653931
 20
244.571716
 11
166.142456
 21
243.121719
  0
LINE
  8
LC-003-002-----0
 62
     1
  6
CONTINUOUS
 10
168.653931
 20
244.571716
 11
171.165405
 21
243.121719
  0
LINE
  8
LC-003-002-----0
 62
     1
  6
CONTINUOUS
 10
168.653931
 20
244.571716
 11
168.653931
 21
246.321716
  0
ENDSEC
  0
EOF
