  0
SECTION
  2
HEADER
  9
$LIMMIN
 10
56.813217
 20
63.156326
  9
$LIMMAX
 10
201.657242
 20
135.043365
  9
$EXTMIN
 10
56.813217
 20
63.156326
  9
$EXTMAX
 10
201.657242
 20
135.043365
  0
ENDSEC
  0
SECTION
  2
TABLES
  0
TABLE
  2
LTYPE
 70
     3
  0
LTYPE
  2
CONTINUOUS
 70
    64
  3
Ausgezogene Linie
 72
    65
 73
     0
 40
0.0
  0
LTYPE
  2
DASHED
 70
    64
  3
__ __ __ __ __ __ __ __ __ __ __ __ __ __ __
 72
    65
 73
     2
 40
0.75
 49
0.5
 49
-0.25
  0
LTYPE
  2
DASHDOT
 70
    64
  3
__ . __ . __ . __ . __ . __ . __ . __ . __ . __
 72
    65
 73
     4
 40
1.0
 49
0.5
 49
-0.25
 49
0.0
 49
-0.25
  0
ENDTAB
  0
TABLE
  2
LAYER
 70
     4
  0
LAYER
  2
LC-INFO-1-1-MM-A1-0
 70
    64
 62
     7
  6
CONTINUOUS
  0
LAYER
  2
LC-003-002-----0
 70
    64
 62
     7
  6
CONTINUOUS
  0
LAYER
  2
LC-004-006-----0
 70
    64
 62
     7
  6
CONTINUOUS
  0
LAYER
  2
LC-006-012-----0
 70
    64
 62
     7
  6
CONTINUOUS
  0
ENDTAB
  0
TABLE
  2
STYLE
 70
     1
  0
STYLE
  2
TXT8
 70
    64
 40
0.0
 41
1.0
 50
0.0
 71
     0
 42
3.500000
  3
TXT8
  4

  0
ENDTAB
  0
ENDSEC
  0
SECTION
  2
BLOCKS
  0
ENDSEC
  0
SECTION
  2
ENTITIES
  0
ARC
  8
LC-003-002-----0
 62
     1
  6
CONTINUOUS
 10
181.297104
 20
93.535309
 40
3.356970
 50
0.516885
 51
36.830497
  0
ARC
  8
LC-003-002-----0
 62
     1
  6
CONTINUOUS
 10
180.288177
 20
92.765617
 40
4.625935
 50
36.970096
 51
66.213712
  0
ARC
  8
LC-003-002-----0
 62
     1
  6
CONTINUOUS
 10
179.677948
 20
91.493034
 40
6.036708
 50
65.785384
 51
90.227885
  0
ARC
  8
LC-003-002-----0
 62
     1
  6
CONTINUOUS
 10
179.629929
 20
91.493034
 40
6.036708
 50
89.772120
 51
114.214615
  0
ARC
  8
LC-003-002-----0
 62
     1
  6
CONTINUOUS
 10
179.019699
 20
92.765617
 40
4.625935
 50
113.786287
 51
143.029899
  0
ARC
  8
LC-003-002-----0
 62
     1
  6
CONTINUOUS
 10
178.010773
 20
93.535309
 40
3.356970
 50
143.169508
 51
179.483110
  0
ARC
  8
LC-003-002-----0
 62
     1
  6
CONTINUOUS
 10
178.010773
 20
93.595879
 40
3.356970
 50
180.516890
 51
216.830492
  0
ARC
  8
LC-003-002-----0
 62
     1
  6
CONTINUOUS
 10
179.019699
 20
94.365570
 40
4.625935
 50
216.970101
 51
246.213713
  0
ARC
  8
LC-003-002-----0
 62
     1
  6
CONTINUOUS
 10
179.629929
 20
95.638153
 40
6.036708
 50
245.785385
 51
270.227880
  0
ARC
  8
LC-003-002-----0
 62
     1
  6
CONTINUOUS
 10
179.677948
 20
95.638153
 40
6.036708
 50
269.772115
 51
294.214616
  0
ARC
  8
LC-003-002-----0
 62
     1
  6
CONTINUOUS
 10
180.288177
 20
94.365570
 40
4.625935
 50
293.786288
 51
323.029904
  0
ARC
  8
LC-003-002-----0
 62
     1
  6
CONTINUOUS
 10
181.297104
 20
93.595879
 40
3.356970
 50
323.169503
 51
359.483115
  0
ARC
  8
LC-003-002-----0
 62
     1
  6
CONTINUOUS
 10
178.031860
 20
95.573250
 40
7.122098
 50
359.834872
 51
26.293756
  0
ARC
  8
LC-003-002-----0
 62
     1
  6
CONTINUOUS
 10
179.027832
 20
96.094940
 40
5.998138
 50
26.040410
 51
55.746378
  0
ARC
  8
LC-003-002-----0
 62
     1
  6
CONTINUOUS
 10
179.630234
 20
96.957474
 40
4.946157
 50
55.890308
 51
89.725443
  0
ARC
  8
LC-003-002-----0
 62
     1
  6
CONTINUOUS
 10
179.677643
 20
96.957474
 40
4.946157
 50
90.274556
 51
124.109687
  0
ARC
  8
LC-003-002-----0
 62
     1
  6
CONTINUOUS
 10
180.280029
 20
96.094940
 40
5.998138
 50
124.253627
 51
153.959595
  0
ARC
  8
LC-003-002-----0
 62
     1
  6
CONTINUOUS
 10
181.276001
 20
95.573250
 40
7.122098
 50
153.706249
 51
180.165122
  0
ARC
  8
LC-003-002-----0
 62
     1
  6
CONTINUOUS
 10
181.276001
 20
95.532196
 40
7.122098
 50
179.834878
 51
206.293751
  0
ARC
  8
LC-003-002-----0
 62
     1
  6
CONTINUOUS
 10
180.280029
 20
95.010506
 40
5.998138
 50
206.040405
 51
235.746373
  0
ARC
  8
LC-003-002-----0
 62
     1
  6
CONTINUOUS
 10
179.677643
 20
94.147972
 40
4.946157
 50
235.890313
 51
269.725444
  0
ARC
  8
LC-003-002-----0
 62
     1
  6
CONTINUOUS
 10
179.630234
 20
94.147972
 40
4.946157
 50
270.274557
 51
304.109692
  0
ARC
  8
LC-003-002-----0
 62
     1
  6
CONTINUOUS
 10
179.027832
 20
95.010506
 40
5.998138
 50
304.253622
 51
333.959590
  0
ARC
  8
LC-003-002-----0
 62
     1
  6
CONTINUOUS
 10
178.031860
 20
95.532196
 40
7.122098
 50
333.706244
 51
0.165128
  0
LINE
  8
LC-003-002-----0
 62
     1
  6
CONTINUOUS
 10
62.288597
 20
120.232216
 11
62.288597
 21
78.232216
  0
LINE
  8
LC-003-002-----0
 62
     1
  6
CONTINUOUS
 10
71.288597
 20
69.232216
 11
73.236038
 21
69.232216
  0
LINE
  8
LC-003-002-----0
 62
     1
  6
CONTINUOUS
 10
71.288597
 20
129.232208
 11
113.288597
 21
129.232208
  0
LINE
  8
LC-003-002-----0
 62
     1
  6
CONTINUOUS
 10
122.288597
 20
120.232216
 11
122.288597
 21
78.232216
  0
LINE
  8
LC-004-006-----0
 62
     2
  6
DASHDOT
 10
56.813217
 20
99.232216
 11
128.125061
 21
99.232216
  0
LINE
  8
LC-004-006-----0
 62
     2
  6
DASHDOT
 10
92.288597
 20
63.156326
 11
92.288597
 21
135.043365
  0
LINE
  8
LC-004-006-----0
 62
     2
  6
DASHDOT
 10
113.288597
 20
114.541031
 11
113.288597
 21
125.557053
  0
LINE
  8
LC-004-006-----0
 62
     2
  6
DASHDOT
 10
107.468063
 20
120.232216
 11
119.211082
 21
120.232216
  0
CIRCLE
  8
LC-003-002-----0
 62
     1
  6
CONTINUOUS
 10
113.288597
 20
120.232216
 40
3.300000
  0
ARC
  8
LC-003-002-----0
 62
     1
  6
CONTINUOUS
 10
113.288597
 20
120.232216
 40
9.000000
 50
0.000000
 51
90.000003
  0
LINE
  8
LC-004-006-----0
 62
     2
  6
DASHDOT
 10
113.288597
 20
83.923401
 11
113.288597
 21
72.907372
  0
LINE
  8
LC-004-006-----0
 62
     2
  6
DASHDOT
 10
107.468063
 20
78.232216
 11
119.211082
 21
78.232216
  0
CIRCLE
  8
LC-003-002-----0
 62
     1
  6
CONTINUOUS
 10
113.288597
 20
78.232216
 40
3.300000
  0
ARC
  8
LC-003-002-----0
 62
     1
  6
CONTINUOUS
 10
113.288597
 20
78.232216
 40
9.000000
 50
269.999997
 51
0.000000
  0
LINE
  8
LC-004-006-----0
 62
     2
  6
DASHDOT
 10
71.288597
 20
83.923401
 11
71.288597
 21
72.907372
  0
LINE
  8
LC-004-006-----0
 62
     2
  6
DASHDOT
 10
77.109131
 20
78.232216
 11
65.366112
 21
78.232216
  0
CIRCLE
  8
LC-003-002-----0
 62
     1
  6
CONTINUOUS
 10
71.288597
 20
78.232216
 40
3.300000
  0
LINE
  8
LC-004-006-----0
 62
     2
  6
DASHDOT
 10
71.288597
 20
114.541031
 11
71.288597
 21
125.557053
  0
LINE
  8
LC-004-006-----0
 62
     2
  6
DASHDOT
 10
77.109131
 20
120.232216
 11
65.366112
 21
120.232216
  0
CIRCLE
  8
LC-003-002-----0
 62
     1
  6
CONTINUOUS
 10
71.288597
 20
120.232216
 40
3.300000
  0
ARC
  8
LC-003-002-----0
 62
     1
  6
CONTINUOUS
 10
71.288597
 20
120.232216
 40
9.000000
 50
90.000003
 51
180.000009
  0
ARC
  8
LC-003-002-----0
 62
     1
  6
CONTINUOUS
 10
71.288597
 20
78.232216
 40
9.000000
 50
180.000009
 51
269.999997
  0
ARC
  8
LC-003-002-----0
 62
     1
  6
CONTINUOUS
 10
92.288597
 20
99.232216
 40
12.500000
 50
246.892101
 51
233.107899
  0
ARC
  8
LC-003-002-----0
 62
     1
  6
CONTINUOUS
 10
92.288597
 20
99.232216
 40
21.000000
 50
244.096047
 51
235.903960
  0
LINE
  8
LC-003-002-----0
 62
     1
  6
CONTINUOUS
 10
76.700142
 20
69.232216
 11
113.288597
 21
69.232216
  0
LINE
  8
LC-003-002-----0
 62
     1
  6
CONTINUOUS
 10
84.784721
 20
89.235123
 11
73.236038
 21
69.232216
  0
LINE
  8
LC-003-002-----0
 62
     1
  6
CONTINUOUS
 10
87.382797
 20
87.735123
 11
76.700142
 21
69.232216
  0
LINE
  8
LC-004-006-----0
 62
     2
  6
DASHDOT
 10
92.288597
 20
78.232216
 11
59.230675
 21
97.318214
  0
LINE
  8
LC-006-012-----0
 62
     2
  6
DASHED
 10
73.677574
 20
95.328148
 11
62.288593
 21
101.903580
  0
LINE
  8
LC-006-012-----0
 62
     2
  6
DASHED
 10
68.177574
 20
85.801872
 11
62.288593
 21
89.201874
  0
LINE
  8
LC-003-002-----0
 62
     1
  6
CONTINUOUS
 10
173.153931
 20
129.232208
 11
186.153931
 21
129.232208
  0
LINE
  8
LC-006-012-----0
 62
     2
  6
DASHED
 10
73.677574
 20
95.328148
 11
68.177574
 21
85.801872
  0
LINE
  8
LC-003-002-----0
 62
     1
  6
CONTINUOUS
 10
80.396294
 20
81.634140
 11
82.994370
 21
80.134140
  0
LINE
  8
LC-006-012-----0
 62
     2
  6
DASHED
 10
82.994370
 20
80.134140
 11
86.422066
 21
78.155151
  0
LINE
  8
LC-006-012-----0
 62
     2
  6
DASHED
 10
87.072067
 20
78.530434
 11
83.319366
 21
80.697052
  0
LINE
  8
LC-006-012-----0
 62
     2
  6
CONTINUOUS
 10
83.319366
 20
80.697052
 11
80.721291
 21
82.197052
  0
LINE
  8
LC-006-012-----0
 62
     2
  6
DASHED
 10
89.422066
 20
82.600754
 11
85.669373
 21
84.767372
  0
LINE
  8
LC-006-012-----0
 62
     2
  6
DASHED
 10
86.422066
 20
78.155151
 11
87.072067
 21
78.530434
  0
LINE
  8
LC-006-012-----0
 62
     2
  6
DASHED
 10
89.422066
 20
83.351311
 11
89.422066
 21
82.600754
  0
LINE
  8
LC-006-012-----0
 62
     2
  6
DASHED
 10
89.422066
 20
82.600754
 11
87.072067
 21
78.530434
  0
LINE
  8
LC-006-012-----0
 62
     2
  6
DASHED
 10
89.422066
 20
83.351311
 11
86.422066
 21
78.155151
  0
LINE
  8
LC-006-012-----0
 62
     2
  6
DASHED
 10
85.994370
 20
85.330292
 11
89.422066
 21
83.351311
  0
LINE
  8
LC-003-002-----0
 62
     1
  6
CONTINUOUS
 10
83.396294
 20
86.830292
 11
85.994370
 21
85.330292
  0
LINE
  8
LC-006-012-----0
 62
     2
  6
CONTINUOUS
 10
85.669373
 20
84.767372
 11
83.071297
 21
86.267372
  0
LINE
  8
LC-003-002-----0
 62
     1
  6
CONTINUOUS
 10
173.153931
 20
69.232216
 11
186.153931
 21
69.232216
  0
LINE
  8
LC-006-012-----0
 62
     2
  6
DASHED
 10
83.071297
 20
86.267372
 11
74.699638
 21
91.100754
  0
LINE
  8
LC-006-012-----0
 62
     2
  6
DASHED
 10
72.426559
 20
93.163666
 11
83.396294
 21
86.830292
  0
LINE
  8
LC-006-012-----0
 62
     2
  6
DASHED
 10
75.024635
 20
91.663666
 11
72.024635
 21
86.467514
  0
LINE
  8
LC-003-002-----0
 62
     1
  6
CONTINUOUS
 10
171.653931
 20
127.732216
 11
171.653931
 21
70.732216
  0
LINE
  8
LC-006-012-----0
 62
     2
  6
DASHED
 10
80.721291
 20
82.197052
 11
72.349640
 21
87.030434
  0
LINE
  8
LC-006-012-----0
 62
     2
  6
DASHED
 10
69.426559
 20
87.967514
 11
80.396294
 21
81.634140
  0
LINE
  8
LC-003-002-----0
 62
     1
  6
CONTINUOUS
 10
187.653931
 20
127.732216
 11
187.653931
 21
70.732216
  0
LINE
  8
LC-006-012-----0
 62
     2
  6
DASHED
 10
63.730408
 20
90.101494
 11
67.730408
 21
97.029694
  0
ARC
  8
LC-006-012-----0
 62
     2
  6
DASHED
 10
64.596436
 20
89.601494
 40
1.000000
 50
149.999997
 51
239.999997
  0
LINE
  8
LC-006-012-----0
 62
     2
  6
DASHED
 10
64.096436
 20
88.735466
 11
68.426559
 21
86.235466
  0
ARC
  8
LC-006-012-----0
 62
     2
  6
DASHED
 10
68.596436
 20
96.529694
 40
1.000000
 50
60.000002
 51
149.999997
  0
LINE
  8
LC-006-012-----0
 62
     2
  6
DASHED
 10
69.096436
 20
97.395721
 11
73.426559
 21
94.895721
  0
LINE
  8
LC-006-012-----0
 62
     2
  6
DASHED
 10
73.426559
 20
94.895721
 11
68.426559
 21
86.235466
  0
LINE
  8
LC-003-002-----0
 62
     1
  6
CONTINUOUS
 10
196.653931
 20
118.732216
 11
196.653931
 21
79.732216
  0
LINE
  8
LC-003-002-----0
 62
     1
  6
CONTINUOUS
 10
189.153931
 20
120.232216
 11
195.153931
 21
120.232216
  0
LINE
  8
LC-003-002-----0
 62
     1
  6
CONTINUOUS
 10
189.153931
 20
78.232216
 11
195.153931
 21
78.232216
  0
ARC
  8
LC-003-002-----0
 62
     1
  6
CONTINUOUS
 10
173.153931
 20
127.732216
 40
1.500000
 50
90.000003
 51
180.000009
  0
ARC
  8
LC-003-002-----0
 62
     1
  6
CONTINUOUS
 10
186.153931
 20
127.732216
 40
1.500000
 50
0.000000
 51
90.000003
  0
ARC
  8
LC-003-002-----0
 62
     1
  6
CONTINUOUS
 10
173.153931
 20
70.732216
 40
1.500000
 50
180.000009
 51
269.999997
  0
ARC
  8
LC-003-002-----0
 62
     1
  6
CONTINUOUS
 10
186.153931
 20
70.732216
 40
1.500000
 50
269.999997
 51
0.000000
  0
ARC
  8
LC-003-002-----0
 62
     1
  6
CONTINUOUS
 10
195.153931
 20
79.732216
 40
1.500000
 50
269.999997
 51
0.000000
  0
ARC
  8
LC-003-002-----0
 62
     1
  6
CONTINUOUS
 10
195.153931
 20
118.732216
 40
1.500000
 50
0.000000
 51
90.000003
  0
ARC
  8
LC-003-002-----0
 62
     1
  6
CONTINUOUS
 10
189.153931
 20
121.732216
 40
1.500000
 50
180.000009
 51
269.999997
  0
ARC
  8
LC-003-002-----0
 62
     1
  6
CONTINUOUS
 10
189.153931
 20
76.732216
 40
1.500000
 50
90.000003
 51
180.000009
  0
LINE
  8
LC-004-006-----0
 62
     2
  6
DASHDOT
 10
166.440018
 20
99.232216
 11
201.657242
 21
99.232216
  0
LINE
  8
LC-004-006-----0
 62
     2
  6
DASHDOT
 10
179.653931
 20
87.226463
 11
179.653931
 21
104.134209
  0
LINE
  8
LC-006-012-----0
 62
     2
  6
DASHED
 10
171.653931
 20
111.732216
 11
196.653931
 21
111.732216
  0
LINE
  8
LC-006-012-----0
 62
     2
  6
DASHED
 10
171.653931
 20
86.732216
 11
196.653931
 21
86.732216
  0
LINE
  8
LC-004-006-----0
 62
     2
  6
DASHDOT
 10
173.272415
 20
95.552727
 11
186.193726
 21
95.552727
  0
LINE
  8
LC-003-002-----0
 62
     1
  6
CONTINUOUS
 10
177.142456
 20
92.515594
 11
177.142456
 21
94.615593
  0
LINE
  8
LC-003-002-----0
 62
     1
  6
CONTINUOUS
 10
182.165405
 20
92.515594
 11
182.165405
 21
94.615593
  0
LINE
  8
LC-003-002-----0
 62
     1
  6
CONTINUOUS
 10
179.653931
 20
91.065590
 11
177.142456
 21
92.515594
  0
LINE
  8
LC-003-002-----0
 62
     1
  6
CONTINUOUS
 10
179.653931
 20
96.065590
 11
177.142456
 21
94.615593
  0
LINE
  8
LC-003-002-----0
 62
     1
  6
CONTINUOUS
 10
179.653931
 20
91.065590
 11
182.165405
 21
92.515594
  0
LINE
  8
LC-003-002-----0
 62
     1
  6
CONTINUOUS
 10
179.653931
 20
96.065590
 11
182.165405
 21
94.615593
  0
LINE
  8
LC-004-006-----0
 62
     2
  6
DASHDOT
 10
168.120148
 20
120.232216
 11
195.153931
 21
120.232216
  0
LINE
  8
LC-006-012-----0
 62
     2
  6
DASHED
 10
171.653931
 20
123.532211
 11
187.653931
 21
123.532211
  0
LINE
  8
LC-006-012-----0
 62
     2
  6
DASHED
 10
171.653931
 20
116.932213
 11
187.653931
 21
116.932213
  0
LINE
  8
LC-004-006-----0
 62
     2
  6
DASHDOT
 10
168.120148
 20
78.232216
 11
195.153931
 21
78.232216
  0
LINE
  8
LC-006-012-----0
 62
     2
  6
DASHED
 10
171.653931
 20
74.932213
 11
187.653931
 21
74.932213
  0
LINE
  8
LC-006-012-----0
 62
     2
  6
DASHED
 10
171.653931
 20
81.532211
 11
187.653931
 21
81.532211
  0
LINE
  8
LC-003-002-----0
 62
     1
  6
CONTINUOUS
 10
179.653931
 20
96.065590
 11
179.653931
 21
94.315590
  0
LINE
  8
LC-003-002-----0
 62
     1
  6
CONTINUOUS
 10
179.653931
 20
94.315590
 11
177.142456
 21
92.865593
  0
LINE
  8
LC-003-002-----0
 62
     1
  6
CONTINUOUS
 10
179.653931
 20
94.315590
 11
182.165405
 21
92.865593
  0
ENDSEC
  0
EOF
