  0
SECTION
  2
HEADER
  9
$LIMMIN
 10
342.992737
 20
257.154480
  9
$LIMMAX
 10
552.279968
 20
371.758118
  9
$EXTMIN
 10
342.992737
 20
257.154480
  9
$EXTMAX
 10
552.279968
 20
371.758118
  0
ENDSEC
  0
SECTION
  2
TABLES
  0
TABLE
  2
LTYPE
 70
     3
  0
LTYPE
  2
CONTINUOUS
 70
    64
  3
Ausgezogene Linie
 72
    65
 73
     0
 40
0.0
  0
LTYPE
  2
DASHED
 70
    64
  3
__ __ __ __ __ __ __ __ __ __ __ __ __ __ __
 72
    65
 73
     2
 40
0.75
 49
0.5
 49
-0.25
  0
LTYPE
  2
DASHDOT
 70
    64
  3
__ . __ . __ . __ . __ . __ . __ . __ . __ . __
 72
    65
 73
     4
 40
1.0
 49
0.5
 49
-0.25
 49
0.0
 49
-0.25
  0
ENDTAB
  0
TABLE
  2
LAYER
 70
     4
  0
LAYER
  2
LC-INFO-1-1-MM-A1-0
 70
    64
 62
     7
  6
CONTINUOUS
  0
LAYER
  2
LC-003-002-----0
 70
    64
 62
     7
  6
CONTINUOUS
  0
LAYER
  2
LC-004-006-----0
 70
    64
 62
     7
  6
CONTINUOUS
  0
LAYER
  2
LC-006-012-----0
 70
    64
 62
     7
  6
CONTINUOUS
  0
ENDTAB
  0
TABLE
  2
STYLE
 70
     1
  0
STYLE
  2
TXT8
 70
    64
 40
0.0
 41
1.0
 50
0.0
 71
     0
 42
3.500000
  3
TXT8
  4

  0
ENDTAB
  0
ENDSEC
  0
SECTION
  2
BLOCKS
  0
ENDSEC
  0
SECTION
  2
ENTITIES
  0
ARC
  8
LC-003-002-----0
 62
     1
  6
CONTINUOUS
 10
520.384216
 20
304.287262
 40
5.371152
 50
0.516885
 51
36.830497
  0
ARC
  8
LC-003-002-----0
 62
     1
  6
CONTINUOUS
 10
518.769958
 20
303.055756
 40
7.401496
 50
36.970096
 51
66.213712
  0
ARC
  8
LC-003-002-----0
 62
     1
  6
CONTINUOUS
 10
517.793579
 20
301.019623
 40
9.658733
 50
65.785384
 51
90.227885
  0
ARC
  8
LC-003-002-----0
 62
     1
  6
CONTINUOUS
 10
517.716736
 20
301.019623
 40
9.658733
 50
89.772120
 51
114.214615
  0
ARC
  8
LC-003-002-----0
 62
     1
  6
CONTINUOUS
 10
516.740356
 20
303.055756
 40
7.401496
 50
113.786287
 51
143.029899
  0
ARC
  8
LC-003-002-----0
 62
     1
  6
CONTINUOUS
 10
515.126099
 20
304.287262
 40
5.371152
 50
143.169508
 51
179.483110
  0
ARC
  8
LC-003-002-----0
 62
     1
  6
CONTINUOUS
 10
515.126099
 20
304.384155
 40
5.371152
 50
180.516890
 51
216.830492
  0
ARC
  8
LC-003-002-----0
 62
     1
  6
CONTINUOUS
 10
516.740356
 20
305.615662
 40
7.401496
 50
216.970101
 51
246.213713
  0
ARC
  8
LC-003-002-----0
 62
     1
  6
CONTINUOUS
 10
517.716736
 20
307.651794
 40
9.658733
 50
245.785385
 51
270.227880
  0
ARC
  8
LC-003-002-----0
 62
     1
  6
CONTINUOUS
 10
517.793579
 20
307.651794
 40
9.658733
 50
269.772115
 51
294.214616
  0
ARC
  8
LC-003-002-----0
 62
     1
  6
CONTINUOUS
 10
518.769958
 20
305.615662
 40
7.401496
 50
293.786288
 51
323.029904
  0
ARC
  8
LC-003-002-----0
 62
     1
  6
CONTINUOUS
 10
520.384216
 20
304.384155
 40
5.371152
 50
323.169503
 51
359.483115
  0
ARC
  8
LC-003-002-----0
 62
     1
  6
CONTINUOUS
 10
515.100830
 20
307.466797
 40
11.654342
 50
359.834872
 51
26.293756
  0
ARC
  8
LC-003-002-----0
 62
     1
  6
CONTINUOUS
 10
516.730652
 20
308.320465
 40
9.815135
 50
26.040410
 51
55.746378
  0
ARC
  8
LC-003-002-----0
 62
     1
  6
CONTINUOUS
 10
517.716370
 20
309.731873
 40
8.093712
 50
55.890308
 51
89.725443
  0
ARC
  8
LC-003-002-----0
 62
     1
  6
CONTINUOUS
 10
517.793945
 20
309.731873
 40
8.093712
 50
90.274556
 51
124.109687
  0
ARC
  8
LC-003-002-----0
 62
     1
  6
CONTINUOUS
 10
518.779663
 20
308.320465
 40
9.815135
 50
124.253627
 51
153.959595
  0
ARC
  8
LC-003-002-----0
 62
     1
  6
CONTINUOUS
 10
520.409424
 20
307.466797
 40
11.654342
 50
153.706249
 51
180.165122
  0
ARC
  8
LC-003-002-----0
 62
     1
  6
CONTINUOUS
 10
520.409424
 20
307.399597
 40
11.654342
 50
179.834878
 51
206.293751
  0
ARC
  8
LC-003-002-----0
 62
     1
  6
CONTINUOUS
 10
518.779663
 20
306.545929
 40
9.815135
 50
206.040405
 51
235.746373
  0
ARC
  8
LC-003-002-----0
 62
     1
  6
CONTINUOUS
 10
517.793945
 20
305.134521
 40
8.093712
 50
235.890313
 51
269.725444
  0
ARC
  8
LC-003-002-----0
 62
     1
  6
CONTINUOUS
 10
517.716370
 20
305.134521
 40
8.093712
 50
270.274557
 51
304.109692
  0
ARC
  8
LC-003-002-----0
 62
     1
  6
CONTINUOUS
 10
516.730652
 20
306.545929
 40
9.815135
 50
304.253622
 51
333.959590
  0
ARC
  8
LC-003-002-----0
 62
     1
  6
CONTINUOUS
 10
515.100830
 20
307.399597
 40
11.654342
 50
333.706244
 51
0.165128
  0
LINE
  8
LC-003-002-----0
 62
     1
  6
CONTINUOUS
 10
351.627167
 20
347.720398
 11
351.627167
 21
279.720398
  0
LINE
  8
LC-003-002-----0
 62
     1
  6
CONTINUOUS
 10
365.627167
 20
265.720398
 11
369.604980
 21
265.720398
  0
LINE
  8
LC-003-002-----0
 62
     1
  6
CONTINUOUS
 10
365.627167
 20
361.720398
 11
433.627167
 21
361.720398
  0
LINE
  8
LC-003-002-----0
 62
     1
  6
CONTINUOUS
 10
447.627167
 20
347.720398
 11
447.627167
 21
279.720398
  0
LINE
  8
LC-004-006-----0
 62
     2
  6
DASHDOT
 10
399.627167
 20
257.154480
 11
399.627167
 21
371.758118
  0
LINE
  8
LC-004-006-----0
 62
     2
  6
DASHDOT
 10
342.992737
 20
313.720398
 11
455.233002
 21
313.720398
  0
LINE
  8
LC-004-006-----0
 62
     2
  6
DASHDOT
 10
433.627167
 20
339.870758
 11
433.627167
 21
356.112488
  0
LINE
  8
LC-004-006-----0
 62
     2
  6
DASHDOT
 10
425.851898
 20
347.720398
 11
441.910034
 21
347.720398
  0
ARC
  8
LC-003-002-----0
 62
     1
  6
CONTINUOUS
 10
433.627167
 20
347.720398
 40
14.000000
 50
0.000000
 51
90.000003
  0
CIRCLE
  8
LC-003-002-----0
 62
     1
  6
CONTINUOUS
 10
433.627167
 20
347.720398
 40
5.500000
  0
LINE
  8
LC-004-006-----0
 62
     2
  6
DASHDOT
 10
433.627167
 20
287.570007
 11
433.627167
 21
271.328278
  0
LINE
  8
LC-004-006-----0
 62
     2
  6
DASHDOT
 10
425.851898
 20
279.720398
 11
441.910034
 21
279.720398
  0
CIRCLE
  8
LC-003-002-----0
 62
     1
  6
CONTINUOUS
 10
433.627167
 20
279.720398
 40
5.500000
  0
ARC
  8
LC-003-002-----0
 62
     1
  6
CONTINUOUS
 10
433.627167
 20
279.720398
 40
14.000000
 50
269.999997
 51
0.000000
  0
LINE
  8
LC-004-006-----0
 62
     2
  6
DASHDOT
 10
365.627167
 20
287.570007
 11
365.627167
 21
271.328278
  0
LINE
  8
LC-004-006-----0
 62
     2
  6
DASHDOT
 10
373.402466
 20
279.720398
 11
357.344330
 21
279.720398
  0
CIRCLE
  8
LC-003-002-----0
 62
     1
  6
CONTINUOUS
 10
365.627167
 20
279.720398
 40
5.500000
  0
ARC
  8
LC-003-002-----0
 62
     1
  6
CONTINUOUS
 10
365.627167
 20
279.720398
 40
14.000000
 50
180.000009
 51
269.999997
  0
LINE
  8
LC-004-006-----0
 62
     2
  6
DASHDOT
 10
365.627167
 20
339.870758
 11
365.627167
 21
356.112488
  0
LINE
  8
LC-004-006-----0
 62
     2
  6
DASHDOT
 10
373.402466
 20
347.720398
 11
357.344330
 21
347.720398
  0
CIRCLE
  8
LC-003-002-----0
 62
     1
  6
CONTINUOUS
 10
365.627167
 20
347.720398
 40
5.500000
  0
ARC
  8
LC-003-002-----0
 62
     1
  6
CONTINUOUS
 10
365.627167
 20
347.720398
 40
14.000000
 50
90.000003
 51
180.000009
  0
ARC
  8
LC-003-002-----0
 62
     1
  6
CONTINUOUS
 10
399.627167
 20
313.720398
 40
20.000000
 50
245.739172
 51
234.260835
  0
ARC
  8
LC-003-002-----0
 62
     1
  6
CONTINUOUS
 10
399.627167
 20
313.720398
 40
32.500000
 50
243.528117
 51
236.471876
  0
LINE
  8
LC-003-002-----0
 62
     1
  6
CONTINUOUS
 10
374.223755
 20
265.720398
 11
433.627167
 21
265.720398
  0
LINE
  8
LC-003-002-----0
 62
     1
  6
CONTINUOUS
 10
387.945251
 20
297.486694
 11
369.604980
 21
265.720398
  0
LINE
  8
LC-003-002-----0
 62
     1
  6
CONTINUOUS
 10
391.409363
 20
295.486694
 11
374.223755
 21
265.720398
  0
LINE
  8
LC-006-012-----0
 62
     2
  6
DASHED
 10
370.153473
 20
307.129364
 11
351.627167
 21
317.825500
  0
LINE
  8
LC-004-006-----0
 62
     2
  6
DASHDOT
 10
404.472351
 20
276.923004
 11
345.835052
 21
310.777283
  0
LINE
  8
LC-006-012-----0
 62
     2
  6
DASHED
 10
361.153473
 20
291.540894
 11
351.627167
 21
297.040894
  0
LINE
  8
LC-006-012-----0
 62
     2
  6
DASHED
 10
385.922699
 20
293.983521
 11
368.403473
 21
304.098267
  0
LINE
  8
LC-006-012-----0
 62
     2
  6
DASHED
 10
361.153473
 20
291.540894
 11
370.153473
 21
307.129364
  0
LINE
  8
LC-006-012-----0
 62
     2
  6
DASHED
 10
380.422699
 20
284.457245
 11
362.903473
 21
294.571991
  0
LINE
  8
LC-006-012-----0
 62
     2
  6
DASHED
 10
363.152435
 20
295.005585
 11
380.672699
 21
284.890259
  0
LINE
  8
LC-003-002-----0
 62
     1
  6
CONTINUOUS
 10
380.672699
 20
284.890259
 11
384.136810
 21
282.890259
  0
LINE
  8
LC-006-012-----0
 62
     2
  6
DASHED
 10
384.136810
 20
282.890259
 11
397.305969
 21
275.287048
  0
LINE
  8
LC-006-012-----0
 62
     2
  6
DASHED
 10
368.152435
 20
303.665833
 11
385.672699
 21
293.550507
  0
LINE
  8
LC-003-002-----0
 62
     1
  6
CONTINUOUS
 10
385.672699
 20
293.550507
 11
389.136810
 21
291.550507
  0
LINE
  8
LC-006-012-----0
 62
     2
  6
DASHED
 10
389.136810
 20
291.550507
 11
402.305969
 21
283.947296
  0
LINE
  8
LC-006-012-----0
 62
     2
  6
DASHED
 10
398.280975
 20
275.849945
 11
384.624298
 21
283.734619
  0
LINE
  8
LC-003-002-----0
 62
     2
  6
CONTINUOUS
 10
384.624298
 20
283.734619
 11
381.160187
 21
285.734619
  0
LINE
  8
LC-006-012-----0
 62
     2
  6
DASHED
 10
381.160187
 20
285.734619
 11
367.537079
 21
293.599945
  0
LINE
  8
LC-006-012-----0
 62
     2
  6
DASHED
 10
402.305969
 20
282.821472
 11
388.649292
 21
290.706146
  0
LINE
  8
LC-003-002-----0
 62
     2
  6
CONTINUOUS
 10
388.649292
 20
290.706146
 11
385.185211
 21
292.706146
  0
LINE
  8
LC-006-012-----0
 62
     2
  6
DASHED
 10
385.185211
 20
292.706146
 11
371.562073
 21
300.571472
  0
LINE
  8
LC-003-002-----0
 62
     1
  6
CONTINUOUS
 10
506.755157
 20
361.720398
 11
528.755127
 21
361.720398
  0
LINE
  8
LC-003-002-----0
 62
     1
  6
CONTINUOUS
 10
506.755157
 20
265.720398
 11
528.755127
 21
265.720398
  0
LINE
  8
LC-003-002-----0
 62
     1
  6
CONTINUOUS
 10
504.755157
 20
359.720398
 11
504.755157
 21
267.720398
  0
LINE
  8
LC-003-002-----0
 62
     1
  6
CONTINUOUS
 10
530.755127
 20
359.720398
 11
530.755127
 21
267.720398
  0
LINE
  8
LC-003-002-----0
 62
     1
  6
CONTINUOUS
 10
544.755127
 20
344.220398
 11
544.755127
 21
283.220398
  0
LINE
  8
LC-003-002-----0
 62
     1
  6
CONTINUOUS
 10
532.755127
 20
346.220398
 11
542.755127
 21
346.220398
  0
LINE
  8
LC-003-002-----0
 62
     1
  6
CONTINUOUS
 10
532.755127
 20
281.220398
 11
542.755127
 21
281.220398
  0
ARC
  8
LC-003-002-----0
 62
     1
  6
CONTINUOUS
 10
506.755157
 20
359.720398
 40
2.000000
 50
90.000003
 51
180.000009
  0
ARC
  8
LC-003-002-----0
 62
     1
  6
CONTINUOUS
 10
528.755127
 20
359.720398
 40
2.000000
 50
0.000000
 51
90.000003
  0
ARC
  8
LC-003-002-----0
 62
     1
  6
CONTINUOUS
 10
506.755157
 20
267.720398
 40
2.000000
 50
180.000009
 51
269.999997
  0
ARC
  8
LC-003-002-----0
 62
     1
  6
CONTINUOUS
 10
528.755127
 20
267.720398
 40
2.000000
 50
269.999997
 51
0.000000
  0
ARC
  8
LC-003-002-----0
 62
     1
  6
CONTINUOUS
 10
532.755127
 20
279.220398
 40
2.000000
 50
90.000003
 51
180.000009
  0
ARC
  8
LC-003-002-----0
 62
     1
  6
CONTINUOUS
 10
542.755127
 20
283.220398
 40
2.000000
 50
269.999997
 51
0.000000
  0
ARC
  8
LC-003-002-----0
 62
     1
  6
CONTINUOUS
 10
542.755127
 20
344.220398
 40
2.000000
 50
0.000000
 51
90.000003
  0
ARC
  8
LC-003-002-----0
 62
     1
  6
CONTINUOUS
 10
532.755127
 20
348.220398
 40
2.000000
 50
180.000009
 51
269.999997
  0
LINE
  8
LC-004-006-----0
 62
     2
  6
DASHDOT
 10
494.835999
 20
313.720398
 11
552.279968
 21
313.720398
  0
LINE
  8
LC-006-012-----0
 62
     2
  6
DASHED
 10
504.755157
 20
333.720398
 11
544.755127
 21
333.720398
  0
LINE
  8
LC-006-012-----0
 62
     2
  6
DASHED
 10
504.755157
 20
293.720398
 11
544.755127
 21
293.720398
  0
LINE
  8
LC-004-006-----0
 62
     2
  6
DASHDOT
 10
498.819489
 20
347.720398
 11
536.231201
 21
347.720398
  0
LINE
  8
LC-006-012-----0
 62
     2
  6
DASHED
 10
504.755157
 20
353.220398
 11
530.755127
 21
353.220398
  0
LINE
  8
LC-006-012-----0
 62
     2
  6
DASHED
 10
504.755157
 20
342.220398
 11
530.755127
 21
342.220398
  0
LINE
  8
LC-004-006-----0
 62
     2
  6
DASHDOT
 10
498.819489
 20
279.720398
 11
536.231201
 21
279.720398
  0
LINE
  8
LC-006-012-----0
 62
     2
  6
DASHED
 10
504.755157
 20
274.220398
 11
530.755127
 21
274.220398
  0
LINE
  8
LC-006-012-----0
 62
     2
  6
DASHED
 10
504.755157
 20
285.220398
 11
530.755127
 21
285.220398
  0
LINE
  8
LC-004-006-----0
 62
     2
  6
DASHDOT
 10
505.879578
 20
307.433197
 11
529.313782
 21
307.433197
  0
LINE
  8
LC-004-006-----0
 62
     2
  6
DASHDOT
 10
517.755127
 20
292.335602
 11
517.755127
 21
322.221069
  0
LINE
  8
LC-006-012-----0
 62
     2
  6
DASHED
 10
369.652435
 20
306.263916
 11
361.652435
 21
292.407501
  0
LINE
  8
LC-006-012-----0
 62
     2
  6
DASHED
 10
362.377838
 20
310.463898
 11
369.652435
 21
306.263916
  0
ARC
  8
LC-006-012-----0
 62
     2
  6
DASHED
 10
361.577850
 20
309.078278
 40
1.600000
 50
60.000002
 51
149.999997
  0
LINE
  8
LC-006-012-----0
 62
     2
  6
DASHED
 10
353.792206
 20
298.793152
 11
360.192200
 21
309.878265
  0
LINE
  8
LC-006-012-----0
 62
     2
  6
DASHED
 10
354.377838
 20
296.607513
 11
361.652435
 21
292.407501
  0
ARC
  8
LC-006-012-----0
 62
     2
  6
DASHED
 10
355.177826
 20
297.993134
 40
1.600000
 50
149.999997
 51
239.999997
  0
LINE
  8
LC-006-012-----0
 62
     2
  6
DASHED
 10
397.305969
 20
275.287048
 11
398.280975
 21
275.849945
  0
LINE
  8
LC-006-012-----0
 62
     2
  6
DASHED
 10
402.305969
 20
283.947296
 11
402.305969
 21
282.821472
  0
LINE
  8
LC-006-012-----0
 62
     2
  6
DASHED
 10
402.305969
 20
282.821472
 11
398.280975
 21
275.849945
  0
LINE
  8
LC-006-012-----0
 62
     2
  6
DASHED
 10
402.305969
 20
283.947296
 11
397.305969
 21
275.287048
  0
LINE
  8
LC-006-012-----0
 62
     2
  6
DASHED
 10
372.049561
 20
301.415833
 11
367.049561
 21
292.755585
  0
LINE
  8
LC-003-002-----0
 62
     1
  6
CONTINUOUS
 10
515.155151
 20
307.799805
 11
520.355164
 21
307.799805
  0
LINE
  8
LC-003-002-----0
 62
     1
  6
CONTINUOUS
 10
515.155151
 20
300.871613
 11
520.355164
 21
300.871613
  0
LINE
  8
LC-003-002-----0
 62
     1
  6
CONTINUOUS
 10
515.155151
 20
304.899811
 11
520.355164
 21
304.899811
  0
LINE
  8
LC-003-002-----0
 62
     1
  6
CONTINUOUS
 10
515.155151
 20
307.799805
 11
515.155151
 21
304.899811
  0
LINE
  8
LC-003-002-----0
 62
     1
  6
CONTINUOUS
 10
513.155151
 20
304.335693
 11
515.155151
 21
307.799805
  0
LINE
  8
LC-003-002-----0
 62
     1
  6
CONTINUOUS
 10
522.355164
 20
304.335693
 11
520.355164
 21
307.799805
  0
LINE
  8
LC-003-002-----0
 62
     1
  6
CONTINUOUS
 10
513.155151
 20
304.335693
 11
515.155151
 21
300.871613
  0
LINE
  8
LC-003-002-----0
 62
     1
  6
CONTINUOUS
 10
522.355164
 20
304.335693
 11
520.355164
 21
300.871613
  0
LINE
  8
LC-003-002-----0
 62
     1
  6
CONTINUOUS
 10
520.355164
 20
307.799805
 11
520.355164
 21
304.899811
  0
LINE
  8
LC-003-002-----0
 62
     1
  6
CONTINUOUS
 10
513.992310
 20
302.885712
 11
515.155151
 21
304.899811
  0
LINE
  8
LC-003-002-----0
 62
     1
  6
CONTINUOUS
 10
521.518005
 20
302.885712
 11
520.355164
 21
304.899811
  0
ENDSEC
  0
EOF
