  0
SECTION
  2
HEADER
  9
$LIMMIN
 10
-128.984421
 20
119.322769
  9
$LIMMAX
 10
18.476257
 20
275.385468
  9
$EXTMIN
 10
-128.984421
 20
119.322769
  9
$EXTMAX
 10
18.476257
 20
275.385468
  0
ENDSEC
  0
SECTION
  2
TABLES
  0
TABLE
  2
LTYPE
 70
     3
  0
LTYPE
  2
CONTINUOUS
 70
    64
  3
Ausgezogene Linie
 72
    65
 73
     0
 40
0.0
  0
LTYPE
  2
DASHED
 70
    64
  3
__ __ __ __ __ __ __ __ __ __ __ __ __ __ __
 72
    65
 73
     2
 40
0.75
 49
0.5
 49
-0.25
  0
LTYPE
  2
DASHDOT
 70
    64
  3
__ . __ . __ . __ . __ . __ . __ . __ . __ . __
 72
    65
 73
     4
 40
1.0
 49
0.5
 49
-0.25
 49
0.0
 49
-0.25
  0
ENDTAB
  0
TABLE
  2
LAYER
 70
     4
  0
LAYER
  2
LC-003-002-----0
 70
    64
 62
     7
  6
CONTINUOUS
  0
LAYER
  2
LC-004-006-----0
 70
    64
 62
     7
  6
CONTINUOUS
  0
LAYER
  2
LC-006-012-----0
 70
    64
 62
     7
  6
CONTINUOUS
  0
LAYER
  2
LC-001-150-----0
 70
    64
 62
     7
  6
CONTINUOUS
  0
ENDTAB
  0
TABLE
  2
STYLE
 70
     1
  0
STYLE
  2
TXT8
 70
    64
 40
0.0
 41
1.0
 50
0.0
 71
     0
 42
3.500000
  3
TXT8
  4

  0
ENDTAB
  0
ENDSEC
  0
SECTION
  2
BLOCKS
  0
ENDSEC
  0
SECTION
  2
ENTITIES
  0
LINE
  8
LC-003-002-----0
 62
     1
  6
CONTINUOUS
 10
-126.267807
 20
235.415451
 11
-126.267807
 21
229.915451
  0
LINE
  8
LC-003-002-----0
 62
     1
  6
CONTINUOUS
 10
-126.267807
 20
229.915451
 11
-76.267807
 21
229.915451
  0
LINE
  8
LC-003-002-----0
 62
     1
  6
CONTINUOUS
 10
-125.267807
 20
236.415451
 11
-112.756935
 21
236.415451
  0
LINE
  8
LC-004-006-----0
 62
     2
  6
DASHDOT
 10
-81.267807
 20
226.916382
 11
-81.267807
 21
239.120697
  0
LINE
  8
LC-003-002-----0
 62
     1
  6
CONTINUOUS
 10
-76.267807
 20
235.415451
 11
-76.267807
 21
229.915451
  0
LINE
  8
LC-004-006-----0
 62
     2
  6
DASHDOT
 10
-101.267807
 20
226.916382
 11
-101.267807
 21
275.067352
  0
LINE
  8
LC-004-006-----0
 62
     2
  6
DASHDOT
 10
-121.713684
 20
251.915451
 11
-82.257240
 21
251.915451
  0
CIRCLE
  8
LC-003-002-----0
 62
     1
  6
CONTINUOUS
 10
-101.267807
 20
251.915451
 40
13.000000
  0
CIRCLE
  8
LC-003-002-----0
 62
     1
  6
CONTINUOUS
 10
-101.267807
 20
251.915451
 40
8.000000
  0
CIRCLE
  8
LC-003-002-----0
 62
     1
  6
CONTINUOUS
 10
-101.267807
 20
251.915451
 40
11.000000
  0
LINE
  8
LC-003-002-----0
 62
     1
  6
CONTINUOUS
 10
-29.500048
 20
229.915451
 11
5.499953
 21
229.915451
  0
ARC
  8
LC-003-002-----0
 62
     1
  6
CONTINUOUS
 10
-125.267807
 20
235.415451
 40
1.000000
 50
90.000003
 51
180.000009
  0
ARC
  8
LC-003-002-----0
 62
     1
  6
CONTINUOUS
 10
-77.267807
 20
235.415451
 40
1.000000
 50
0.000000
 51
90.000003
  0
LINE
  8
LC-003-002-----0
 62
     1
  6
CONTINUOUS
 10
-76.300858
 20
235.670410
 11
-81.928772
 21
257.014648
  0
ARC
  8
LC-003-002-----0
 62
     1
  6
CONTINUOUS
 10
-101.267807
 20
251.915451
 40
20.000000
 50
14.771211
 51
130.367588
  0
LINE
  8
LC-003-002-----0
 62
     1
  6
CONTINUOUS
 10
-122.599403
 20
266.915466
 11
-114.869278
 21
266.915466
  0
LINE
  8
LC-003-002-----0
 62
     1
  6
CONTINUOUS
 10
-126.264000
 20
235.502609
 11
-123.595596
 21
266.002594
  0
ARC
  8
LC-003-002-----0
 62
     1
  6
CONTINUOUS
 10
-122.599403
 20
265.915466
 40
1.000000
 50
90.000003
 51
175.000006
  0
ARC
  8
LC-003-002-----0
 62
     1
  6
CONTINUOUS
 10
-114.869278
 20
267.915466
 40
1.000000
 50
269.999997
 51
310.367594
  0
LINE
  8
LC-006-012-----0
 62
     2
  6
DASHED
 10
-79.017807
 20
229.915451
 11
-79.017807
 21
236.415451
  0
LINE
  8
LC-006-012-----0
 62
     2
  6
DASHED
 10
-83.517807
 20
229.915451
 11
-83.517807
 21
236.415451
  0
LINE
  8
LC-004-006-----0
 62
     2
  6
DASHDOT
 10
-121.267807
 20
226.916382
 11
-121.267807
 21
239.120697
  0
LINE
  8
LC-006-012-----0
 62
     2
  6
DASHED
 10
-123.517807
 20
229.915451
 11
-123.517807
 21
236.415451
  0
LINE
  8
LC-006-012-----0
 62
     2
  6
DASHED
 10
-119.017807
 20
229.915451
 11
-119.017807
 21
236.415451
  0
CIRCLE
  8
LC-003-002-----0
 62
     1
  6
CONTINUOUS
 10
-101.267807
 20
251.915451
 40
17.500000
  0
ARC
  8
LC-003-002-----0
 62
     1
  6
CONTINUOUS
 10
-112.756935
 20
237.415451
 40
1.000000
 50
269.999997
 51
51.608332
  0
ARC
  8
LC-003-002-----0
 62
     1
  6
CONTINUOUS
 10
-89.778679
 20
237.415451
 40
1.000000
 50
128.391669
 51
269.999997
  0
LINE
  8
LC-003-002-----0
 62
     1
  6
CONTINUOUS
 10
-89.778679
 20
236.415451
 11
-77.267807
 21
236.415451
  0
LINE
  8
LC-003-002-----0
 62
     1
  6
CONTINUOUS
 10
5.499953
 20
229.915451
 11
5.499953
 21
235.415451
  0
LINE
  8
LC-003-002-----0
 62
     1
  6
CONTINUOUS
 10
-15.000047
 20
271.915466
 11
-9.000047
 21
271.915466
  0
LINE
  8
LC-003-002-----0
 62
     1
  6
CONTINUOUS
 10
-29.500048
 20
229.915451
 11
-29.500048
 21
235.415451
  0
LINE
  8
LC-003-002-----0
 62
     1
  6
CONTINUOUS
 10
-28.500048
 20
236.415451
 11
4.499953
 21
236.415451
  0
ARC
  8
LC-003-002-----0
 62
     1
  6
CONTINUOUS
 10
-28.500048
 20
235.415451
 40
1.000000
 50
90.000003
 51
180.000009
  0
ARC
  8
LC-003-002-----0
 62
     1
  6
CONTINUOUS
 10
4.499953
 20
235.415451
 40
1.000000
 50
0.000000
 51
90.000003
  0
LINE
  8
LC-004-006-----0
 62
     2
  6
DASHDOT
 10
-12.000047
 20
226.916382
 11
-12.000047
 21
275.385468
  0
LINE
  8
LC-003-002-----0
 62
     1
  6
CONTINUOUS
 10
-1.000047
 20
237.415451
 11
-1.000047
 21
268.415466
  0
LINE
  8
LC-003-002-----0
 62
     1
  6
CONTINUOUS
 10
-23.000048
 20
237.415451
 11
-23.000048
 21
268.415466
  0
LINE
  8
LC-003-002-----0
 62
     1
  6
CONTINUOUS
 10
-22.000048
 20
269.415466
 11
-16.500048
 21
269.415466
  0
ARC
  8
LC-003-002-----0
 62
     1
  6
CONTINUOUS
 10
-22.000048
 20
268.415466
 40
1.000000
 50
90.000003
 51
180.000009
  0
ARC
  8
LC-003-002-----0
 62
     1
  6
CONTINUOUS
 10
-2.000047
 20
268.415466
 40
1.000000
 50
0.000000
 51
90.000003
  0
ARC
  8
LC-003-002-----0
 62
     1
  6
CONTINUOUS
 10
-0.000047
 20
237.415451
 40
1.000000
 50
180.000009
 51
269.999997
  0
ARC
  8
LC-003-002-----0
 62
     1
  6
CONTINUOUS
 10
-24.000048
 20
237.415451
 40
1.000000
 50
269.999997
 51
0.000000
  0
LINE
  8
LC-003-002-----0
 62
     1
  6
CONTINUOUS
 10
-8.000047
 20
237.415451
 11
-8.000047
 21
270.915466
  0
LINE
  8
LC-003-002-----0
 62
     1
  6
CONTINUOUS
 10
-16.000048
 20
237.415451
 11
-16.000048
 21
270.915466
  0
ARC
  8
LC-003-002-----0
 62
     1
  6
CONTINUOUS
 10
-15.000047
 20
270.915466
 40
1.000000
 50
90.000003
 51
180.000009
  0
ARC
  8
LC-003-002-----0
 62
     1
  6
CONTINUOUS
 10
-9.000047
 20
270.915466
 40
1.000000
 50
0.000000
 51
90.000003
  0
LINE
  8
LC-003-002-----0
 62
     1
  6
CONTINUOUS
 10
-7.500047
 20
269.415466
 11
-2.000047
 21
269.415466
  0
ARC
  8
LC-003-002-----0
 62
     1
  6
CONTINUOUS
 10
-17.000048
 20
237.415451
 40
1.000000
 50
269.999997
 51
0.000000
  0
ARC
  8
LC-003-002-----0
 62
     1
  6
CONTINUOUS
 10
-7.000047
 20
237.415451
 40
1.000000
 50
180.000009
 51
269.999997
  0
ARC
  8
LC-003-002-----0
 62
     1
  6
CONTINUOUS
 10
-101.267807
 20
251.140457
 40
14.775000
 50
115.668530
 51
64.331469
  0
LINE
  8
LC-003-002-----0
 62
     1
  6
CONTINUOUS
 10
-15.000047
 20
266.915466
 11
-9.000047
 21
266.915466
  0
ARC
  8
LC-003-002-----0
 62
     1
  6
CONTINUOUS
 10
-15.000047
 20
265.915466
 40
1.000000
 50
90.000003
 51
180.000009
  0
ARC
  8
LC-003-002-----0
 62
     1
  6
CONTINUOUS
 10
-9.000047
 20
265.915466
 40
1.000000
 50
0.000000
 51
90.000003
  0
ARC
  8
LC-003-002-----0
 62
     1
  6
CONTINUOUS
 10
-7.500047
 20
269.915466
 40
0.500000
 50
180.000009
 51
269.999997
  0
ARC
  8
LC-003-002-----0
 62
     1
  6
CONTINUOUS
 10
-16.500048
 20
269.915466
 40
0.500000
 50
269.999997
 51
0.000000
  0
LINE
  8
LC-003-002-----0
 62
     1
  6
CONTINUOUS
 10
-29.500048
 20
264.915466
 11
-24.300047
 21
264.915466
  0
LINE
  8
LC-003-002-----0
 62
     1
  6
CONTINUOUS
 10
-29.500048
 20
238.915451
 11
-24.300047
 21
238.915451
  0
LINE
  8
LC-003-002-----0
 62
     1
  6
CONTINUOUS
 10
5.999953
 20
239.415451
 11
5.999953
 21
264.415466
  0
LINE
  8
LC-003-002-----0
 62
     1
  6
CONTINUOUS
 10
-107.667809
 20
264.457397
 11
-106.951515
 21
266.736572
  0
LINE
  8
LC-003-002-----0
 62
     1
  6
CONTINUOUS
 10
-105.200882
 20
268.276886
 11
-102.042809
 21
268.841309
  0
LINE
  8
LC-003-002-----0
 62
     1
  6
CONTINUOUS
 10
-102.042809
 20
264.892334
 11
-102.042809
 21
268.841309
  0
LINE
  8
LC-003-002-----0
 62
     1
  6
CONTINUOUS
 10
-100.492805
 20
264.892334
 11
-100.492805
 21
268.841309
  0
LINE
  8
LC-003-002-----0
 62
     1
  6
CONTINUOUS
 10
-100.492805
 20
268.841309
 11
-97.334732
 21
268.276886
  0
LINE
  8
LC-003-002-----0
 62
     1
  6
CONTINUOUS
 10
-94.867805
 20
264.457397
 11
-95.584099
 21
266.736572
  0
CIRCLE
  8
LC-003-002-----0
 62
     1
  6
CONTINUOUS
 10
-98.492805
 20
266.591309
 40
1.000000
  0
LINE
  8
LC-003-002-----0
 62
     1
  6
CONTINUOUS
 10
-30.000048
 20
239.415451
 11
-30.000048
 21
264.415466
  0
CIRCLE
  8
LC-003-002-----0
 62
     1
  6
CONTINUOUS
 10
-104.042809
 20
266.591309
 40
1.000000
  0
ARC
  8
LC-003-002-----0
 62
     1
  6
CONTINUOUS
 10
-104.805023
 20
266.061981
 40
2.250000
 50
100.133271
 51
162.553325
  0
ARC
  8
LC-003-002-----0
 62
     1
  6
CONTINUOUS
 10
-97.730591
 20
266.061981
 40
2.250000
 50
17.446678
 51
79.866727
  0
ARC
  8
LC-003-002-----0
 62
     1
  6
CONTINUOUS
 10
-29.500048
 20
239.415451
 40
0.500000
 50
180.000009
 51
269.999997
  0
ARC
  8
LC-003-002-----0
 62
     1
  6
CONTINUOUS
 10
-29.500048
 20
264.415466
 40
0.500000
 50
90.000003
 51
180.000009
  0
ARC
  8
LC-003-002-----0
 62
     1
  6
CONTINUOUS
 10
5.499953
 20
264.415466
 40
0.500000
 50
0.000000
 51
90.000003
  0
ARC
  8
LC-003-002-----0
 62
     1
  6
CONTINUOUS
 10
5.499953
 20
239.415451
 40
0.500000
 50
269.999997
 51
0.000000
  0
LINE
  8
LC-004-006-----0
 62
     2
  6
DASHDOT
 10
-25.000048
 20
226.916382
 11
-25.000048
 21
239.120697
  0
LINE
  8
LC-004-006-----0
 62
     2
  6
DASHDOT
 10
0.999953
 20
226.916382
 11
0.999953
 21
239.120697
  0
LINE
  8
LC-006-012-----0
 62
     2
  6
DASHED
 10
3.249953
 20
229.915451
 11
3.249953
 21
236.415451
  0
LINE
  8
LC-006-012-----0
 62
     2
  6
DASHED
 10
-1.250047
 20
229.915451
 11
-1.250047
 21
236.415451
  0
LINE
  8
LC-004-006-----0
 62
     2
  6
DASHDOT
 10
-44.871067
 20
251.915451
 11
18.476257
 21
251.915451
  0
LINE
  8
LC-006-012-----0
 62
     2
  6
DASHED
 10
-27.250048
 20
229.915451
 11
-27.250048
 21
236.415451
  0
LINE
  8
LC-006-012-----0
 62
     2
  6
DASHED
 10
-22.750048
 20
229.915451
 11
-22.750048
 21
236.415451
  0
LINE
  8
LC-003-002-----0
 62
     1
  6
CONTINUOUS
 10
-24.300047
 20
268.841309
 11
-23.000048
 21
268.841309
  0
LINE
  8
LC-003-002-----0
 62
     1
  6
CONTINUOUS
 10
-24.300047
 20
236.415451
 11
-24.300047
 21
268.841309
  0
LINE
  8
LC-003-002-----0
 62
     1
  6
CONTINUOUS
 10
-23.000048
 20
268.415466
 11
-23.000048
 21
268.841309
  0
LINE
  8
LC-006-012-----0
 62
     2
  6
DASHED
 10
-24.300047
 20
264.915466
 11
0.299953
 21
264.915466
  0
LINE
  8
LC-003-002-----0
 62
     1
  6
CONTINUOUS
 10
0.299953
 20
264.915466
 11
5.499953
 21
264.915466
  0
LINE
  8
LC-006-012-----0
 62
     2
  6
DASHED
 10
-24.300047
 20
238.915451
 11
0.299953
 21
238.915451
  0
LINE
  8
LC-003-002-----0
 62
     1
  6
CONTINUOUS
 10
0.299953
 20
238.915451
 11
5.499953
 21
238.915451
  0
LINE
  8
LC-003-002-----0
 62
     1
  6
CONTINUOUS
 10
0.299953
 20
268.841309
 11
-1.000047
 21
268.841309
  0
LINE
  8
LC-003-002-----0
 62
     1
  6
CONTINUOUS
 10
-1.000047
 20
268.415466
 11
-1.000047
 21
268.841309
  0
LINE
  8
LC-003-002-----0
 62
     1
  6
CONTINUOUS
 10
0.299953
 20
236.415451
 11
0.299953
 21
268.841309
  0
LINE
  8
LC-003-002-----0
 62
     1
  6
CONTINUOUS
 10
-42.189243
 20
259.915466
 11
-30.000050
 21
259.915466
  0
LINE
  8
LC-003-002-----0
 62
     1
  6
CONTINUOUS
 10
-41.965385
 20
243.915451
 11
-30.000050
 21
243.915451
  0
LINE
  8
LC-001-150-----0
 62
     2
  6
CONTINUOUS
 10
-41.965385
 20
243.915451
 11
-41.260548
 21
248.601715
  0
LINE
  8
LC-001-150-----0
 62
     2
  6
CONTINUOUS
 10
-41.260548
 20
248.601715
 11
-42.259201
 21
256.812134
  0
LINE
  8
LC-001-150-----0
 62
     2
  6
CONTINUOUS
 10
-42.259201
 20
256.812134
 11
-42.189243
 21
259.915466
  0
LINE
  8
LC-001-150-----0
 62
     2
  6
CONTINUOUS
 10
16.211782
 20
243.915451
 11
16.488552
 21
247.495728
  0
LINE
  8
LC-001-150-----0
 62
     2
  6
CONTINUOUS
 10
16.488552
 20
247.495728
 11
15.489898
 21
255.521805
  0
LINE
  8
LC-001-150-----0
 62
     2
  6
CONTINUOUS
 10
15.489898
 20
255.521805
 11
15.489898
 21
259.915466
  0
LINE
  8
LC-006-012-----0
 62
     2
  6
DASHED
 10
-30.000048
 20
259.915466
 11
5.999953
 21
259.915466
  0
LINE
  8
LC-006-012-----0
 62
     2
  6
DASHED
 10
-30.000048
 20
243.915451
 11
5.999953
 21
243.915451
  0
LINE
  8
LC-003-002-----0
 62
     1
  6
CONTINUOUS
 10
5.999953
 20
243.915451
 11
16.211782
 21
243.915451
  0
LINE
  8
LC-003-002-----0
 62
     1
  6
CONTINUOUS
 10
5.999953
 20
259.915466
 11
15.489898
 21
259.915466
  0
LINE
  8
LC-003-002-----0
 62
     1
  6
CONTINUOUS
 10
-126.267807
 20
166.832245
 11
-126.267807
 21
133.832245
  0
LINE
  8
LC-003-002-----0
 62
     1
  6
CONTINUOUS
 10
-125.267807
 20
132.832245
 11
-114.267807
 21
132.832245
  0
LINE
  8
LC-003-002-----0
 62
     1
  6
CONTINUOUS
 10
-76.267807
 20
166.832245
 11
-76.267807
 21
133.832245
  0
LINE
  8
LC-003-002-----0
 62
     1
  6
CONTINUOUS
 10
-125.267807
 20
167.832245
 11
-114.267807
 21
167.832245
  0
ARC
  8
LC-003-002-----0
 62
     1
  6
CONTINUOUS
 10
-125.267807
 20
166.832245
 40
1.000000
 50
90.000003
 51
180.000009
  0
ARC
  8
LC-003-002-----0
 62
     1
  6
CONTINUOUS
 10
-125.267807
 20
133.832245
 40
1.000000
 50
180.000009
 51
269.999997
  0
ARC
  8
LC-003-002-----0
 62
     1
  6
CONTINUOUS
 10
-77.267807
 20
133.832245
 40
1.000000
 50
269.999997
 51
0.000000
  0
ARC
  8
LC-003-002-----0
 62
     1
  6
CONTINUOUS
 10
-77.267807
 20
166.832245
 40
1.000000
 50
0.000000
 51
90.000003
  0
LINE
  8
LC-004-006-----0
 62
     2
  6
DASHDOT
 10
-128.984421
 20
150.332245
 11
-73.186516
 21
150.332245
  0
LINE
  8
LC-004-006-----0
 62
     2
  6
DASHDOT
 10
-101.267807
 20
179.044815
 11
-101.267807
 21
119.322769
  0
LINE
  8
LC-003-002-----0
 62
     1
  6
CONTINUOUS
 10
-126.267807
 20
154.332245
 11
-76.267807
 21
154.332245
  0
LINE
  8
LC-003-002-----0
 62
     1
  6
CONTINUOUS
 10
-126.267807
 20
146.332245
 11
-76.267807
 21
146.332245
  0
LINE
  8
LC-003-002-----0
 62
     1
  6
CONTINUOUS
 10
-123.595596
 20
153.332245
 11
-123.595596
 21
147.332245
  0
ARC
  8
LC-003-002-----0
 62
     1
  6
CONTINUOUS
 10
-122.595596
 20
147.332245
 40
1.000000
 50
180.000009
 51
269.999997
  0
ARC
  8
LC-003-002-----0
 62
     1
  6
CONTINUOUS
 10
-122.595596
 20
153.332245
 40
1.000000
 50
90.000003
 51
180.000009
  0
LINE
  8
LC-003-002-----0
 62
     1
  6
CONTINUOUS
 10
-118.767807
 20
160.332245
 11
-118.767807
 21
155.332245
  0
LINE
  8
LC-003-002-----0
 62
     1
  6
CONTINUOUS
 10
-83.767807
 20
160.332245
 11
-83.767807
 21
155.332245
  0
LINE
  8
LC-003-002-----0
 62
     1
  6
CONTINUOUS
 10
-117.767807
 20
161.332245
 11
-84.767807
 21
161.332245
  0
LINE
  8
LC-003-002-----0
 62
     1
  6
CONTINUOUS
 10
-117.767807
 20
139.332245
 11
-84.767807
 21
139.332245
  0
ARC
  8
LC-003-002-----0
 62
     1
  6
CONTINUOUS
 10
-117.767807
 20
160.332245
 40
1.000000
 50
90.000003
 51
180.000009
  0
ARC
  8
LC-003-002-----0
 62
     1
  6
CONTINUOUS
 10
-117.767807
 20
140.332245
 40
1.000000
 50
180.000009
 51
269.999997
  0
ARC
  8
LC-003-002-----0
 62
     1
  6
CONTINUOUS
 10
-84.767807
 20
140.332245
 40
1.000000
 50
269.999997
 51
0.000000
  0
ARC
  8
LC-003-002-----0
 62
     1
  6
CONTINUOUS
 10
-84.767807
 20
160.332245
 40
1.000000
 50
0.000000
 51
90.000003
  0
LINE
  8
LC-003-002-----0
 62
     1
  6
CONTINUOUS
 10
-118.767807
 20
145.332245
 11
-118.767807
 21
140.332245
  0
LINE
  8
LC-003-002-----0
 62
     1
  6
CONTINUOUS
 10
-83.767807
 20
145.332245
 11
-83.767807
 21
140.332245
  0
LINE
  8
LC-004-006-----0
 62
     2
  6
DASHDOT
 10
-121.267807
 20
166.869247
 11
-121.267807
 21
159.837341
  0
LINE
  8
LC-004-006-----0
 62
     2
  6
DASHDOT
 10
-124.638397
 20
163.332245
 11
-117.617599
 21
163.332245
  0
CIRCLE
  8
LC-003-002-----0
 62
     1
  6
CONTINUOUS
 10
-121.267807
 20
163.332245
 40
2.250000
  0
LINE
  8
LC-004-006-----0
 62
     2
  6
DASHDOT
 10
-121.267807
 20
133.795242
 11
-121.267807
 21
140.827133
  0
LINE
  8
LC-004-006-----0
 62
     2
  6
DASHDOT
 10
-124.638397
 20
137.332245
 11
-117.617599
 21
137.332245
  0
CIRCLE
  8
LC-003-002-----0
 62
     1
  6
CONTINUOUS
 10
-121.267807
 20
137.332245
 40
2.250000
  0
LINE
  8
LC-004-006-----0
 62
     2
  6
DASHDOT
 10
-81.267807
 20
166.869247
 11
-81.267807
 21
159.837341
  0
LINE
  8
LC-004-006-----0
 62
     2
  6
DASHDOT
 10
-77.897217
 20
163.332245
 11
-84.918015
 21
163.332245
  0
CIRCLE
  8
LC-003-002-----0
 62
     1
  6
CONTINUOUS
 10
-81.267807
 20
163.332245
 40
2.250000
  0
LINE
  8
LC-004-006-----0
 62
     2
  6
DASHDOT
 10
-81.267807
 20
133.795242
 11
-81.267807
 21
140.827133
  0
LINE
  8
LC-004-006-----0
 62
     2
  6
DASHDOT
 10
-77.897217
 20
137.332245
 11
-84.918015
 21
137.332245
  0
CIRCLE
  8
LC-003-002-----0
 62
     1
  6
CONTINUOUS
 10
-81.267807
 20
137.332245
 40
2.250000
  0
LINE
  8
LC-003-002-----0
 62
     1
  6
CONTINUOUS
 10
-116.022469
 20
162.632233
 11
-86.513145
 21
162.632233
  0
LINE
  8
LC-003-002-----0
 62
     1
  6
CONTINUOUS
 10
-116.022469
 20
162.632233
 11
-116.022469
 21
161.332245
  0
LINE
  8
LC-003-002-----0
 62
     1
  6
CONTINUOUS
 10
-102.042809
 20
162.632233
 11
-102.042809
 21
161.332245
  0
LINE
  8
LC-003-002-----0
 62
     1
  6
CONTINUOUS
 10
-100.492805
 20
162.632233
 11
-100.492805
 21
161.332245
  0
LINE
  8
LC-003-002-----0
 62
     1
  6
CONTINUOUS
 10
-86.513145
 20
162.632233
 11
-86.513145
 21
161.332245
  0
LINE
  8
LC-003-002-----0
 62
     1
  6
CONTINUOUS
 10
-116.022469
 20
138.032242
 11
-86.513145
 21
138.032242
  0
LINE
  8
LC-003-002-----0
 62
     1
  6
CONTINUOUS
 10
-116.022469
 20
138.032242
 11
-116.022469
 21
139.332245
  0
LINE
  8
LC-003-002-----0
 62
     1
  6
CONTINUOUS
 10
-102.042809
 20
138.032242
 11
-102.042809
 21
139.332245
  0
LINE
  8
LC-003-002-----0
 62
     1
  6
CONTINUOUS
 10
-100.492805
 20
138.032242
 11
-100.492805
 21
139.332245
  0
LINE
  8
LC-003-002-----0
 62
     1
  6
CONTINUOUS
 10
-86.513145
 20
138.032242
 11
-86.513145
 21
139.332245
  0
LINE
  8
LC-003-002-----0
 62
     1
  6
CONTINUOUS
 10
-114.267807
 20
167.832245
 11
-114.267807
 21
162.632233
  0
LINE
  8
LC-003-002-----0
 62
     1
  6
CONTINUOUS
 10
-88.267807
 20
167.832245
 11
-88.267807
 21
162.632233
  0
LINE
  8
LC-003-002-----0
 62
     1
  6
CONTINUOUS
 10
-113.767807
 20
168.332245
 11
-88.767807
 21
168.332245
  0
LINE
  8
LC-003-002-----0
 62
     1
  6
CONTINUOUS
 10
-113.767807
 20
132.332245
 11
-88.767807
 21
132.332245
  0
ARC
  8
LC-003-002-----0
 62
     1
  6
CONTINUOUS
 10
-113.767807
 20
167.832245
 40
0.500000
 50
90.000003
 51
180.000009
  0
ARC
  8
LC-003-002-----0
 62
     1
  6
CONTINUOUS
 10
-88.767807
 20
167.832245
 40
0.500000
 50
0.000000
 51
90.000003
  0
ARC
  8
LC-003-002-----0
 62
     1
  6
CONTINUOUS
 10
-113.767807
 20
132.832245
 40
0.500000
 50
180.000009
 51
269.999997
  0
ARC
  8
LC-003-002-----0
 62
     1
  6
CONTINUOUS
 10
-88.767807
 20
132.832245
 40
0.500000
 50
269.999997
 51
0.000000
  0
LINE
  8
LC-006-012-----0
 62
     2
  6
DASHED
 10
-114.267807
 20
162.632233
 11
-114.267807
 21
138.032242
  0
LINE
  8
LC-003-002-----0
 62
     1
  6
CONTINUOUS
 10
-114.267807
 20
138.032242
 11
-114.267807
 21
132.832245
  0
LINE
  8
LC-006-012-----0
 62
     2
  6
DASHED
 10
-88.267807
 20
162.632233
 11
-88.267807
 21
138.032242
  0
LINE
  8
LC-003-002-----0
 62
     1
  6
CONTINUOUS
 10
-88.267807
 20
138.032242
 11
-88.267807
 21
132.832245
  0
LINE
  8
LC-006-012-----0
 62
     2
  6
DASHED
 10
-114.267807
 20
167.832245
 11
-88.267807
 21
167.832245
  0
LINE
  8
LC-003-002-----0
 62
     1
  6
CONTINUOUS
 10
-88.267807
 20
167.832245
 11
-77.267807
 21
167.832245
  0
LINE
  8
LC-006-012-----0
 62
     2
  6
DASHED
 10
-114.267807
 20
132.832245
 11
-88.267807
 21
132.832245
  0
LINE
  8
LC-003-002-----0
 62
     1
  6
CONTINUOUS
 10
-88.267807
 20
132.832245
 11
-77.267807
 21
132.832245
  0
LINE
  8
LC-003-002-----0
 62
     1
  6
CONTINUOUS
 10
-93.267807
 20
177.038391
 11
-93.267807
 21
168.332245
  0
LINE
  8
LC-001-150-----0
 62
     2
  6
CONTINUOUS
 10
-109.267807
 20
121.422394
 11
-105.426491
 21
121.825066
  0
LINE
  8
LC-001-150-----0
 62
     2
  6
CONTINUOUS
 10
-105.426491
 20
121.825066
 11
-96.645866
 21
120.989418
  0
LINE
  8
LC-001-150-----0
 62
     2
  6
CONTINUOUS
 10
-96.645866
 20
120.989418
 11
-93.267807
 21
121.570763
  0
LINE
  8
LC-001-150-----0
 62
     2
  6
CONTINUOUS
 10
-109.267807
 20
177.310211
 11
-106.028458
 21
176.542511
  0
LINE
  8
LC-001-150-----0
 62
     2
  6
CONTINUOUS
 10
-106.028458
 20
176.542511
 11
-97.247833
 21
177.431396
  0
LINE
  8
LC-001-150-----0
 62
     2
  6
CONTINUOUS
 10
-97.247833
 20
177.431396
 11
-93.267807
 21
177.038391
  0
LINE
  8
LC-003-002-----0
 62
     1
  6
CONTINUOUS
 10
-109.267807
 20
177.310211
 11
-109.267807
 21
168.332245
  0
LINE
  8
LC-006-012-----0
 62
     2
  6
DASHED
 10
-109.267807
 20
168.332245
 11
-109.267807
 21
132.332245
  0
LINE
  8
LC-006-012-----0
 62
     2
  6
DASHED
 10
-93.267807
 20
168.332245
 11
-93.267807
 21
132.332245
  0
LINE
  8
LC-003-002-----0
 62
     1
  6
CONTINUOUS
 10
-93.267807
 20
132.332245
 11
-93.267807
 21
121.570755
  0
LINE
  8
LC-003-002-----0
 62
     1
  6
CONTINUOUS
 10
-109.267807
 20
132.332245
 11
-109.267807
 21
121.422386
  0
LINE
  8
LC-003-002-----0
 62
     1
  6
CONTINUOUS
 10
-24.300047
 20
264.457397
 11
-23.000048
 21
264.457397
  0
LINE
  8
LC-003-002-----0
 62
     1
  6
CONTINUOUS
 10
-1.000047
 20
264.457397
 11
0.299953
 21
264.457397
  0
ARC
  8
LC-003-002-----0
 62
     1
  6
CONTINUOUS
 10
-119.767807
 20
155.332245
 40
1.000000
 50
269.999997
 51
0.000000
  0
ARC
  8
LC-003-002-----0
 62
     1
  6
CONTINUOUS
 10
-119.767807
 20
145.332245
 40
1.000000
 50
0.000000
 51
90.000003
  0
ARC
  8
LC-003-002-----0
 62
     1
  6
CONTINUOUS
 10
-82.767807
 20
155.332245
 40
1.000000
 50
180.000009
 51
269.999997
  0
ARC
  8
LC-003-002-----0
 62
     1
  6
CONTINUOUS
 10
-82.767807
 20
145.332245
 40
1.000000
 50
90.000003
 51
180.000009
  0
LINE
  8
LC-003-002-----0
 62
     1
  6
CONTINUOUS
 10
-114.869278
 20
153.332245
 11
-114.869278
 21
147.332245
  0
ARC
  8
LC-003-002-----0
 62
     1
  6
CONTINUOUS
 10
-113.869278
 20
153.332245
 40
1.000000
 50
90.000003
 51
180.000009
  0
ARC
  8
LC-003-002-----0
 62
     1
  6
CONTINUOUS
 10
-113.869278
 20
147.332245
 40
1.000000
 50
180.000009
 51
269.999997
  0
ENDSEC
  0
EOF
