  0
SECTION
  2
HEADER
  9
$LIMMIN
 10
77.607605
 20
187.631577
  9
$LIMMAX
 10
312.811127
 20
416.660950
  9
$EXTMIN
 10
77.607605
 20
187.631577
  9
$EXTMAX
 10
312.811127
 20
416.660950
  0
ENDSEC
  0
SECTION
  2
TABLES
  0
TABLE
  2
LTYPE
 70
     3
  0
LTYPE
  2
CONTINUOUS
 70
    64
  3
Ausgezogene Linie
 72
    65
 73
     0
 40
0.0
  0
LTYPE
  2
DASHED
 70
    64
  3
__ __ __ __ __ __ __ __ __ __ __ __ __ __ __
 72
    65
 73
     2
 40
0.75
 49
0.5
 49
-0.25
  0
LTYPE
  2
DASHDOT
 70
    64
  3
__ . __ . __ . __ . __ . __ . __ . __ . __ . __
 72
    65
 73
     4
 40
1.0
 49
0.5
 49
-0.25
 49
0.0
 49
-0.25
  0
ENDTAB
  0
TABLE
  2
LAYER
 70
     4
  0
LAYER
  2
LC-003-002-----0
 70
    64
 62
     7
  6
CONTINUOUS
  0
LAYER
  2
LC-004-006-----0
 70
    64
 62
     7
  6
CONTINUOUS
  0
LAYER
  2
LC-006-012-----0
 70
    64
 62
     7
  6
CONTINUOUS
  0
LAYER
  2
LC-001-150-----0
 70
    64
 62
     7
  6
CONTINUOUS
  0
ENDTAB
  0
TABLE
  2
STYLE
 70
     1
  0
STYLE
  2
TXT8
 70
    64
 40
0.0
 41
1.0
 50
0.0
 71
     0
 42
3.500000
  3
TXT8
  4

  0
ENDTAB
  0
ENDSEC
  0
SECTION
  2
BLOCKS
  0
ENDSEC
  0
SECTION
  2
ENTITIES
  0
LINE
  8
LC-003-002-----0
 62
     1
  6
CONTINUOUS
 10
82.102959
 20
350.425964
 11
82.102959
 21
341.925964
  0
LINE
  8
LC-003-002-----0
 62
     1
  6
CONTINUOUS
 10
82.102959
 20
341.925964
 11
166.102951
 21
341.925964
  0
LINE
  8
LC-003-002-----0
 62
     1
  6
CONTINUOUS
 10
83.602959
 20
351.925964
 11
103.126778
 21
351.925964
  0
LINE
  8
LC-004-006-----0
 62
     2
  6
DASHDOT
 10
158.102951
 20
355.479645
 11
158.102951
 21
338.215881
  0
LINE
  8
LC-004-006-----0
 62
     2
  6
DASHDOT
 10
89.710510
 20
376.925964
 11
157.037704
 21
376.925964
  0
LINE
  8
LC-004-006-----0
 62
     2
  6
DASHDOT
 10
124.102959
 20
416.660950
 11
124.102959
 21
338.215881
  0
LINE
  8
LC-003-002-----0
 62
     1
  6
CONTINUOUS
 10
166.102951
 20
350.425964
 11
166.102951
 21
341.925964
  0
ARC
  8
LC-003-002-----0
 62
     1
  6
CONTINUOUS
 10
83.602959
 20
350.425964
 40
1.500000
 50
90.000003
 51
180.000009
  0
ARC
  8
LC-003-002-----0
 62
     1
  6
CONTINUOUS
 10
164.602951
 20
350.425964
 40
1.500000
 50
0.000000
 51
90.000003
  0
CIRCLE
  8
LC-003-002-----0
 62
     1
  6
CONTINUOUS
 10
124.102959
 20
376.925964
 40
15.000000
  0
CIRCLE
  8
LC-003-002-----0
 62
     1
  6
CONTINUOUS
 10
124.102959
 20
376.925964
 40
23.500000
  0
CIRCLE
  8
LC-003-002-----0
 62
     1
  6
CONTINUOUS
 10
124.102959
 20
376.925964
 40
21.000000
  0
LINE
  8
LC-003-002-----0
 62
     1
  6
CONTINUOUS
 10
229.567261
 20
341.925964
 11
289.567261
 21
341.925964
  0
LINE
  8
LC-003-002-----0
 62
     1
  6
CONTINUOUS
 10
166.064499
 20
350.763428
 11
158.205734
 21
384.800018
  0
LINE
  8
LC-003-002-----0
 62
     1
  6
CONTINUOUS
 10
82.108665
 20
350.556702
 11
86.745567
 21
403.556702
  0
LINE
  8
LC-003-002-----0
 62
     1
  6
CONTINUOUS
 10
88.239853
 20
404.925964
 11
102.608772
 21
404.925964
  0
ARC
  8
LC-003-002-----0
 62
     1
  6
CONTINUOUS
 10
88.239853
 20
403.425964
 40
1.500000
 50
90.000003
 51
175.000006
  0
ARC
  8
LC-003-002-----0
 62
     1
  6
CONTINUOUS
 10
102.608772
 20
406.425964
 40
1.500000
 50
269.999997
 51
306.077695
  0
ARC
  8
LC-003-002-----0
 62
     1
  6
CONTINUOUS
 10
124.102959
 20
376.925964
 40
35.000000
 50
13.001287
 51
126.077697
  0
LINE
  8
LC-006-012-----0
 62
     2
  6
DASHED
 10
161.402954
 20
351.925964
 11
161.402954
 21
341.925964
  0
LINE
  8
LC-006-012-----0
 62
     2
  6
DASHED
 10
154.802963
 20
351.925964
 11
154.802963
 21
341.925964
  0
LINE
  8
LC-004-006-----0
 62
     2
  6
DASHDOT
 10
90.102959
 20
355.479645
 11
90.102959
 21
338.215881
  0
LINE
  8
LC-006-012-----0
 62
     2
  6
DASHED
 10
86.802956
 20
351.925964
 11
86.802956
 21
341.925964
  0
LINE
  8
LC-006-012-----0
 62
     2
  6
DASHED
 10
93.402954
 20
351.925964
 11
93.402954
 21
341.925964
  0
LINE
  8
LC-003-002-----0
 62
     1
  6
CONTINUOUS
 10
233.717255
 20
406.541626
 11
235.567261
 21
406.541626
  0
LINE
  8
LC-003-002-----0
 62
     1
  6
CONTINUOUS
 10
235.567261
 20
405.425964
 11
235.567261
 21
406.541626
  0
CIRCLE
  8
LC-003-002-----0
 62
     1
  6
CONTINUOUS
 10
124.102959
 20
376.925964
 40
30.000000
  0
LINE
  8
LC-003-002-----0
 62
     1
  6
CONTINUOUS
 10
285.417267
 20
406.541626
 11
283.567261
 21
406.541626
  0
LINE
  8
LC-003-002-----0
 62
     1
  6
CONTINUOUS
 10
283.567261
 20
405.425964
 11
283.567261
 21
406.541626
  0
LINE
  8
LC-003-002-----0
 62
     1
  6
CONTINUOUS
 10
285.417267
 20
351.925964
 11
285.417267
 21
406.541626
  0
LINE
  8
LC-003-002-----0
 62
     1
  6
CONTINUOUS
 10
233.717255
 20
400.267334
 11
235.567261
 21
400.267334
  0
LINE
  8
LC-003-002-----0
 62
     1
  6
CONTINUOUS
 10
283.567261
 20
400.267334
 11
285.417267
 21
400.267334
  0
LINE
  8
LC-003-002-----0
 62
     1
  6
CONTINUOUS
 10
227.067261
 20
400.425964
 11
233.717255
 21
400.425964
  0
LINE
  8
LC-003-002-----0
 62
     1
  6
CONTINUOUS
 10
227.067261
 20
353.425964
 11
233.717255
 21
353.425964
  0
LINE
  8
LC-003-002-----0
 62
     1
  6
CONTINUOUS
 10
293.567261
 20
354.925964
 11
293.567261
 21
398.925964
  0
LINE
  8
LC-003-002-----0
 62
     1
  6
CONTINUOUS
 10
225.567261
 20
354.925964
 11
225.567261
 21
398.925964
  0
ARC
  8
LC-003-002-----0
 62
     1
  6
CONTINUOUS
 10
227.067261
 20
398.925964
 40
1.500000
 50
90.000003
 51
180.000009
  0
ARC
  8
LC-003-002-----0
 62
     1
  6
CONTINUOUS
 10
227.067261
 20
354.925964
 40
1.500000
 50
180.000009
 51
269.999997
  0
LINE
  8
LC-003-002-----0
 62
     1
  6
CONTINUOUS
 10
145.079132
 20
351.925964
 11
164.602951
 21
351.925964
  0
ARC
  8
LC-003-002-----0
 62
     1
  6
CONTINUOUS
 10
145.079132
 20
353.425964
 40
1.500000
 50
131.752204
 51
269.999997
  0
ARC
  8
LC-003-002-----0
 62
     1
  6
CONTINUOUS
 10
103.126778
 20
353.425964
 40
1.500000
 50
269.999997
 51
48.247794
  0
LINE
  8
LC-006-012-----0
 62
     1
  6
CONTINUOUS
 10
289.567261
 20
341.925964
 11
289.567261
 21
350.425964
  0
LINE
  8
LC-003-002-----0
 62
     1
  6
CONTINUOUS
 10
229.567261
 20
341.925964
 11
229.567261
 21
350.425964
  0
LINE
  8
LC-004-006-----0
 62
     2
  6
DASHDOT
 10
259.567261
 20
338.215881
 11
259.567261
 21
416.660950
  0
LINE
  8
LC-003-002-----0
 62
     1
  6
CONTINUOUS
 10
231.067261
 20
351.925964
 11
288.067261
 21
351.925964
  0
ARC
  8
LC-003-002-----0
 62
     1
  6
CONTINUOUS
 10
231.067261
 20
350.425964
 40
1.500000
 50
90.000003
 51
180.000009
  0
ARC
  8
LC-003-002-----0
 62
     1
  6
CONTINUOUS
 10
288.067261
 20
350.425964
 40
1.500000
 50
0.000000
 51
90.000003
  0
LINE
  8
LC-003-002-----0
 62
     1
  6
CONTINUOUS
 10
283.567261
 20
353.425964
 11
283.567261
 21
405.425964
  0
LINE
  8
LC-003-002-----0
 62
     1
  6
CONTINUOUS
 10
235.567261
 20
353.425964
 11
235.567261
 21
405.425964
  0
LINE
  8
LC-003-002-----0
 62
     1
  6
CONTINUOUS
 10
237.067261
 20
406.925964
 11
248.067261
 21
406.925964
  0
LINE
  8
LC-003-002-----0
 62
     1
  6
CONTINUOUS
 10
269.567261
 20
353.425964
 11
269.567261
 21
410.425964
  0
ARC
  8
LC-003-002-----0
 62
     1
  6
CONTINUOUS
 10
237.067261
 20
405.425964
 40
1.500000
 50
90.000003
 51
180.000009
  0
ARC
  8
LC-003-002-----0
 62
     1
  6
CONTINUOUS
 10
282.067261
 20
405.425964
 40
1.500000
 50
0.000000
 51
90.000003
  0
ARC
  8
LC-003-002-----0
 62
     1
  6
CONTINUOUS
 10
234.067261
 20
353.425964
 40
1.500000
 50
269.999997
 51
0.000000
  0
ARC
  8
LC-003-002-----0
 62
     1
  6
CONTINUOUS
 10
285.067261
 20
353.425964
 40
1.500000
 50
180.000009
 51
269.999997
  0
LINE
  8
LC-003-002-----0
 62
     1
  6
CONTINUOUS
 10
249.567261
 20
353.425964
 11
249.567261
 21
410.425964
  0
LINE
  8
LC-003-002-----0
 62
     1
  6
CONTINUOUS
 10
251.067261
 20
411.925964
 11
268.067261
 21
411.925964
  0
ARC
  8
LC-003-002-----0
 62
     1
  6
CONTINUOUS
 10
251.067261
 20
410.425964
 40
1.500000
 50
90.000003
 51
180.000009
  0
ARC
  8
LC-003-002-----0
 62
     1
  6
CONTINUOUS
 10
268.067261
 20
410.425964
 40
1.500000
 50
0.000000
 51
90.000003
  0
ARC
  8
LC-003-002-----0
 62
     1
  6
CONTINUOUS
 10
248.067261
 20
353.425964
 40
1.500000
 50
269.999997
 51
0.000000
  0
ARC
  8
LC-003-002-----0
 62
     1
  6
CONTINUOUS
 10
271.067261
 20
353.425964
 40
1.500000
 50
180.000009
 51
269.999997
  0
LINE
  8
LC-003-002-----0
 62
     1
  6
CONTINUOUS
 10
271.067261
 20
406.925964
 11
282.067261
 21
406.925964
  0
ARC
  8
LC-003-002-----0
 62
     1
  6
CONTINUOUS
 10
248.067261
 20
408.425964
 40
1.500000
 50
269.999997
 51
0.000000
  0
ARC
  8
LC-003-002-----0
 62
     1
  6
CONTINUOUS
 10
271.067261
 20
408.425964
 40
1.500000
 50
180.000009
 51
269.999997
  0
LINE
  8
LC-003-002-----0
 62
     1
  6
CONTINUOUS
 10
251.067261
 20
404.925964
 11
268.067261
 21
404.925964
  0
ARC
  8
LC-003-002-----0
 62
     1
  6
CONTINUOUS
 10
251.067261
 20
403.425964
 40
1.500000
 50
90.000003
 51
180.000009
  0
ARC
  8
LC-003-002-----0
 62
     1
  6
CONTINUOUS
 10
268.067261
 20
403.425964
 40
1.500000
 50
0.000000
 51
90.000003
  0
LINE
  8
LC-003-002-----0
 62
     1
  6
CONTINUOUS
 10
233.717255
 20
351.925964
 11
233.717255
 21
406.541626
  0
ARC
  8
LC-003-002-----0
 62
     1
  6
CONTINUOUS
 10
292.067261
 20
354.925964
 40
1.500000
 50
269.999997
 51
0.000000
  0
ARC
  8
LC-003-002-----0
 62
     1
  6
CONTINUOUS
 10
292.067261
 20
398.925964
 40
1.500000
 50
0.000000
 51
90.000003
  0
LINE
  8
LC-006-012-----0
 62
     2
  6
DASHED
 10
233.717255
 20
400.425964
 11
285.417267
 21
400.425964
  0
LINE
  8
LC-003-002-----0
 62
     1
  6
CONTINUOUS
 10
285.417267
 20
400.425964
 11
292.067261
 21
400.425964
  0
LINE
  8
LC-006-012-----0
 62
     2
  6
DASHED
 10
233.717255
 20
353.425964
 11
285.417267
 21
353.425964
  0
LINE
  8
LC-003-002-----0
 62
     1
  6
CONTINUOUS
 10
285.417267
 20
353.425964
 11
292.067261
 21
353.425964
  0
LINE
  8
LC-004-006-----0
 62
     2
  6
DASHDOT
 10
204.079071
 20
376.925964
 11
312.811127
 21
376.925964
  0
LINE
  8
LC-003-002-----0
 62
     1
  6
CONTINUOUS
 10
208.631699
 20
391.925964
 11
225.567261
 21
391.925964
  0
LINE
  8
LC-001-150-----0
 62
     2
  6
CONTINUOUS
 10
310.220154
 20
361.925964
 11
310.504211
 21
368.956238
  0
LINE
  8
LC-001-150-----0
 62
     2
  6
CONTINUOUS
 10
310.504211
 20
368.956238
 11
309.036163
 21
380.117645
  0
LINE
  8
LC-001-150-----0
 62
     2
  6
CONTINUOUS
 10
309.036163
 20
380.117645
 11
309.551605
 21
391.925964
  0
ARC
  8
LC-003-002-----0
 62
     1
  6
CONTINUOUS
 10
124.102959
 20
375.675964
 40
26.500000
 50
111.878622
 51
68.121383
  0
LINE
  8
LC-001-150-----0
 62
     2
  6
CONTINUOUS
 10
208.116623
 20
361.925964
 11
209.096237
 21
368.956238
  0
LINE
  8
LC-001-150-----0
 62
     2
  6
CONTINUOUS
 10
209.096237
 20
368.956238
 11
208.257355
 21
384.459625
  0
LINE
  8
LC-001-150-----0
 62
     2
  6
CONTINUOUS
 10
208.257355
 20
384.459625
 11
208.631699
 21
391.925964
  0
LINE
  8
LC-006-012-----0
 62
     2
  6
DASHED
 10
225.567261
 20
391.925964
 11
293.567261
 21
391.925964
  0
LINE
  8
LC-003-002-----0
 62
     1
  6
CONTINUOUS
 10
208.116623
 20
361.925964
 11
225.567261
 21
361.925964
  0
LINE
  8
LC-006-012-----0
 62
     2
  6
DASHED
 10
225.567261
 20
361.925964
 11
293.567261
 21
361.925964
  0
LINE
  8
LC-003-002-----0
 62
     1
  6
CONTINUOUS
 10
293.567261
 20
361.925964
 11
310.220154
 21
361.925964
  0
LINE
  8
LC-003-002-----0
 62
     1
  6
CONTINUOUS
 10
133.977951
 20
400.267334
 11
132.915283
 21
403.457733
  0
LINE
  8
LC-003-002-----0
 62
     1
  6
CONTINUOUS
 10
130.183029
 20
405.774811
 11
125.352951
 21
406.541626
  0
LINE
  8
LC-003-002-----0
 62
     1
  6
CONTINUOUS
 10
125.352959
 20
400.392700
 11
125.352959
 21
406.541626
  0
LINE
  8
LC-003-002-----0
 62
     1
  6
CONTINUOUS
 10
122.852959
 20
400.392700
 11
122.852959
 21
406.541626
  0
LINE
  8
LC-003-002-----0
 62
     1
  6
CONTINUOUS
 10
122.852959
 20
406.541626
 11
118.022888
 21
405.774811
  0
LINE
  8
LC-003-002-----0
 62
     1
  6
CONTINUOUS
 10
114.227959
 20
400.267334
 11
115.290634
 21
403.457733
  0
CIRCLE
  8
LC-003-002-----0
 62
     1
  6
CONTINUOUS
 10
120.352959
 20
403.091614
 40
1.250000
  0
LINE
  8
LC-003-002-----0
 62
     1
  6
CONTINUOUS
 10
293.567261
 20
391.925964
 11
309.551605
 21
391.925964
  0
CIRCLE
  8
LC-003-002-----0
 62
     1
  6
CONTINUOUS
 10
127.852959
 20
403.091614
 40
1.250000
  0
ARC
  8
LC-003-002-----0
 62
     1
  6
CONTINUOUS
 10
129.642075
 20
402.367462
 40
3.450000
 50
18.422161
 51
80.979098
  0
ARC
  8
LC-003-002-----0
 62
     1
  6
CONTINUOUS
 10
118.563835
 20
402.367462
 40
3.450000
 50
99.020900
 51
161.577837
  0
LINE
  8
LC-004-006-----0
 62
     2
  6
DASHDOT
 10
237.067261
 20
355.479645
 11
237.067261
 21
338.215881
  0
LINE
  8
LC-004-006-----0
 62
     2
  6
DASHDOT
 10
282.067261
 20
355.479645
 11
282.067261
 21
338.215881
  0
LINE
  8
LC-004-006-----0
 62
     2
  6
DASHED
 10
285.367249
 20
351.925964
 11
285.367249
 21
341.925964
  0
LINE
  8
LC-006-012-----0
 62
     2
  6
DASHED
 10
278.767242
 20
351.925964
 11
278.767242
 21
341.925964
  0
LINE
  8
LC-003-002-----0
 62
     1
  6
CONTINUOUS
 10
82.102959
 20
268.232239
 11
82.102959
 21
211.232239
  0
LINE
  8
LC-006-012-----0
 62
     2
  6
DASHED
 10
233.767258
 20
351.925964
 11
233.767258
 21
341.925964
  0
LINE
  8
LC-006-012-----0
 62
     2
  6
DASHED
 10
240.367249
 20
351.925964
 11
240.367249
 21
341.925964
  0
LINE
  8
LC-003-002-----0
 62
     1
  6
CONTINUOUS
 10
83.602959
 20
209.732239
 11
100.602959
 21
209.732239
  0
LINE
  8
LC-003-002-----0
 62
     1
  6
CONTINUOUS
 10
166.102951
 20
268.232239
 11
166.102951
 21
211.232239
  0
LINE
  8
LC-003-002-----0
 62
     1
  6
CONTINUOUS
 10
83.602959
 20
269.732239
 11
100.602959
 21
269.732239
  0
LINE
  8
LC-004-006-----0
 62
     2
  6
DASHDOT
 10
77.607605
 20
239.732239
 11
170.672256
 21
239.732239
  0
ARC
  8
LC-003-002-----0
 62
     1
  6
CONTINUOUS
 10
83.602959
 20
268.232239
 40
1.500000
 50
90.000003
 51
180.000009
  0
ARC
  8
LC-003-002-----0
 62
     1
  6
CONTINUOUS
 10
83.602959
 20
211.232239
 40
1.500000
 50
180.000009
 51
269.999997
  0
ARC
  8
LC-003-002-----0
 62
     1
  6
CONTINUOUS
 10
164.602951
 20
211.232239
 40
1.500000
 50
269.999997
 51
0.000000
  0
ARC
  8
LC-003-002-----0
 62
     1
  6
CONTINUOUS
 10
164.602951
 20
268.232239
 40
1.500000
 50
0.000000
 51
90.000003
  0
LINE
  8
LC-004-006-----0
 62
     2
  6
DASHDOT
 10
124.102959
 20
291.981720
 11
124.102959
 21
187.631577
  0
LINE
  8
LC-003-002-----0
 62
     1
  6
CONTINUOUS
 10
82.102959
 20
249.732239
 11
166.102951
 21
249.732239
  0
LINE
  8
LC-003-002-----0
 62
     1
  6
CONTINUOUS
 10
82.102959
 20
229.732239
 11
166.102951
 21
229.732239
  0
LINE
  8
LC-003-002-----0
 62
     1
  6
CONTINUOUS
 10
86.745567
 20
248.232239
 11
86.745567
 21
231.232239
  0
ARC
  8
LC-003-002-----0
 62
     1
  6
CONTINUOUS
 10
88.245567
 20
231.232239
 40
1.500000
 50
180.000009
 51
269.999997
  0
ARC
  8
LC-003-002-----0
 62
     1
  6
CONTINUOUS
 10
88.245567
 20
248.232239
 40
1.500000
 50
90.000003
 51
180.000009
  0
LINE
  8
LC-003-002-----0
 62
     1
  6
CONTINUOUS
 10
94.102959
 20
262.232239
 11
94.102959
 21
251.232239
  0
LINE
  8
LC-003-002-----0
 62
     1
  6
CONTINUOUS
 10
154.102951
 20
262.232239
 11
154.102951
 21
251.232239
  0
LINE
  8
LC-003-002-----0
 62
     1
  6
CONTINUOUS
 10
95.602959
 20
263.732239
 11
152.602951
 21
263.732239
  0
LINE
  8
LC-003-002-----0
 62
     1
  6
CONTINUOUS
 10
95.602959
 20
215.732239
 11
152.602951
 21
215.732239
  0
ARC
  8
LC-003-002-----0
 62
     1
  6
CONTINUOUS
 10
95.602959
 20
262.232239
 40
1.500000
 50
90.000003
 51
180.000009
  0
ARC
  8
LC-003-002-----0
 62
     1
  6
CONTINUOUS
 10
152.602951
 20
262.232239
 40
1.500000
 50
0.000000
 51
90.000003
  0
ARC
  8
LC-003-002-----0
 62
     1
  6
CONTINUOUS
 10
152.602951
 20
217.232239
 40
1.500000
 50
269.999997
 51
0.000000
  0
ARC
  8
LC-003-002-----0
 62
     1
  6
CONTINUOUS
 10
95.602959
 20
217.232239
 40
1.500000
 50
180.000009
 51
269.999997
  0
LINE
  8
LC-003-002-----0
 62
     1
  6
CONTINUOUS
 10
94.102959
 20
228.232239
 11
94.102959
 21
217.232239
  0
LINE
  8
LC-003-002-----0
 62
     1
  6
CONTINUOUS
 10
154.102951
 20
228.232239
 11
154.102951
 21
217.232239
  0
LINE
  8
LC-004-006-----0
 62
     2
  6
DASHDOT
 10
90.102959
 20
267.342621
 11
90.102959
 21
256.604248
  0
LINE
  8
LC-004-006-----0
 62
     2
  6
DASHDOT
 10
85.139328
 20
262.232239
 11
95.739441
 21
262.232239
  0
CIRCLE
  8
LC-003-002-----0
 62
     1
  6
CONTINUOUS
 10
90.102959
 20
262.232239
 40
3.300000
  0
LINE
  8
LC-004-006-----0
 62
     2
  6
DASHDOT
 10
90.102959
 20
212.121857
 11
90.102959
 21
222.860229
  0
LINE
  8
LC-004-006-----0
 62
     2
  6
DASHDOT
 10
85.139328
 20
217.232239
 11
95.739441
 21
217.232239
  0
CIRCLE
  8
LC-003-002-----0
 62
     1
  6
CONTINUOUS
 10
90.102959
 20
217.232239
 40
3.300000
  0
LINE
  8
LC-004-006-----0
 62
     2
  6
DASHDOT
 10
158.102951
 20
267.342621
 11
158.102951
 21
256.604248
  0
LINE
  8
LC-004-006-----0
 62
     2
  6
DASHDOT
 10
163.066589
 20
262.232239
 11
152.466476
 21
262.232239
  0
CIRCLE
  8
LC-003-002-----0
 62
     1
  6
CONTINUOUS
 10
158.102951
 20
262.232239
 40
3.300000
  0
LINE
  8
LC-004-006-----0
 62
     2
  6
DASHDOT
 10
158.102951
 20
212.121857
 11
158.102951
 21
222.860229
  0
LINE
  8
LC-004-006-----0
 62
     2
  6
DASHDOT
 10
163.066589
 20
217.232239
 11
152.466476
 21
217.232239
  0
CIRCLE
  8
LC-003-002-----0
 62
     1
  6
CONTINUOUS
 10
158.102951
 20
217.232239
 40
3.300000
  0
LINE
  8
LC-003-002-----0
 62
     1
  6
CONTINUOUS
 10
97.632454
 20
213.882233
 11
97.632454
 21
215.732239
  0
LINE
  8
LC-003-002-----0
 62
     1
  6
CONTINUOUS
 10
122.852959
 20
213.882233
 11
122.852959
 21
215.732239
  0
LINE
  8
LC-003-002-----0
 62
     1
  6
CONTINUOUS
 10
102.102959
 20
273.732239
 11
146.102951
 21
273.732239
  0
LINE
  8
LC-003-002-----0
 62
     1
  6
CONTINUOUS
 10
102.102959
 20
205.732239
 11
146.102951
 21
205.732239
  0
ARC
  8
LC-003-002-----0
 62
     1
  6
CONTINUOUS
 10
102.102959
 20
207.232239
 40
1.500000
 50
180.000009
 51
269.999997
  0
ARC
  8
LC-003-002-----0
 62
     1
  6
CONTINUOUS
 10
146.102951
 20
207.232239
 40
1.500000
 50
269.999997
 51
0.000000
  0
ARC
  8
LC-003-002-----0
 62
     1
  6
CONTINUOUS
 10
146.102951
 20
272.232239
 40
1.500000
 50
0.000000
 51
90.000003
  0
ARC
  8
LC-003-002-----0
 62
     1
  6
CONTINUOUS
 10
102.102959
 20
272.232239
 40
1.500000
 50
90.000003
 51
180.000009
  0
LINE
  8
LC-006-012-----0
 62
     2
  6
DASHED
 10
100.602959
 20
269.732239
 11
147.602951
 21
269.732239
  0
LINE
  8
LC-003-002-----0
 62
     1
  6
CONTINUOUS
 10
147.602951
 20
269.732239
 11
164.602951
 21
269.732239
  0
LINE
  8
LC-006-012-----0
 62
     2
  6
DASHED
 10
100.602959
 20
209.732239
 11
147.602951
 21
209.732239
  0
LINE
  8
LC-003-002-----0
 62
     1
  6
CONTINUOUS
 10
147.602951
 20
209.732239
 11
164.602951
 21
209.732239
  0
LINE
  8
LC-003-002-----0
 62
     1
  6
CONTINUOUS
 10
97.632454
 20
265.582245
 11
97.632454
 21
263.732239
  0
LINE
  8
LC-003-002-----0
 62
     1
  6
CONTINUOUS
 10
122.852959
 20
265.582245
 11
122.852959
 21
263.732239
  0
LINE
  8
LC-003-002-----0
 62
     1
  6
CONTINUOUS
 10
125.352959
 20
265.582245
 11
125.352959
 21
263.732239
  0
LINE
  8
LC-003-002-----0
 62
     1
  6
CONTINUOUS
 10
150.573456
 20
265.582245
 11
150.573456
 21
263.732239
  0
LINE
  8
LC-003-002-----0
 62
     1
  6
CONTINUOUS
 10
97.632454
 20
265.582245
 11
150.573456
 21
265.582245
  0
LINE
  8
LC-003-002-----0
 62
     1
  6
CONTINUOUS
 10
100.602959
 20
272.232239
 11
100.602959
 21
265.582245
  0
LINE
  8
LC-006-012-----0
 62
     2
  6
DASHED
 10
100.602959
 20
265.582245
 11
100.602959
 21
213.882233
  0
LINE
  8
LC-003-002-----0
 62
     1
  6
CONTINUOUS
 10
147.602951
 20
272.232239
 11
147.602951
 21
265.582245
  0
LINE
  8
LC-006-012-----0
 62
     2
  6
DASHED
 10
147.602951
 20
265.582245
 11
147.602951
 21
213.882233
  0
LINE
  8
LC-003-002-----0
 62
     1
  6
CONTINUOUS
 10
125.352959
 20
213.882233
 11
125.352959
 21
215.732239
  0
LINE
  8
LC-003-002-----0
 62
     1
  6
CONTINUOUS
 10
150.573456
 20
213.882233
 11
150.573456
 21
215.732239
  0
LINE
  8
LC-003-002-----0
 62
     1
  6
CONTINUOUS
 10
97.632454
 20
213.882233
 11
150.573456
 21
213.882233
  0
LINE
  8
LC-003-002-----0
 62
     1
  6
CONTINUOUS
 10
100.602959
 20
213.882233
 11
100.602959
 21
207.232239
  0
LINE
  8
LC-003-002-----0
 62
     1
  6
CONTINUOUS
 10
147.602951
 20
213.882233
 11
147.602951
 21
207.232239
  0
LINE
  8
LC-003-002-----0
 62
     1
  6
CONTINUOUS
 10
109.102959
 20
288.168091
 11
109.102959
 21
273.732239
  0
LINE
  8
LC-003-002-----0
 62
     1
  6
CONTINUOUS
 10
139.102951
 20
288.577301
 11
139.102951
 21
273.732239
  0
LINE
  8
LC-001-150-----0
 62
     2
  6
CONTINUOUS
 10
109.102959
 20
288.168091
 11
117.689674
 21
287.932617
  0
LINE
  8
LC-001-150-----0
 62
     2
  6
CONTINUOUS
 10
117.689674
 20
287.932617
 11
132.947052
 21
289.488312
  0
LINE
  8
LC-001-150-----0
 62
     2
  6
CONTINUOUS
 10
132.947052
 20
289.488312
 11
139.102951
 21
288.577301
  0
LINE
  8
LC-001-150-----0
 62
     2
  6
CONTINUOUS
 10
109.102959
 20
191.676727
 11
116.987320
 21
190.742935
  0
LINE
  8
LC-001-150-----0
 62
     2
  6
CONTINUOUS
 10
116.987320
 20
190.742935
 11
132.536438
 21
191.883774
  0
LINE
  8
LC-001-150-----0
 62
     2
  6
CONTINUOUS
 10
132.536438
 20
191.883774
 11
139.102951
 21
191.583359
  0
LINE
  8
LC-003-002-----0
 62
     1
  6
CONTINUOUS
 10
109.102959
 20
205.732239
 11
109.102959
 21
191.676727
  0
LINE
  8
LC-003-002-----0
 62
     1
  6
CONTINUOUS
 10
139.102951
 20
205.732239
 11
139.102951
 21
191.583359
  0
LINE
  8
LC-006-012-----0
 62
     2
  6
DASHED
 10
139.102951
 20
273.732239
 11
139.102951
 21
205.732239
  0
LINE
  8
LC-006-012-----0
 62
     2
  6
DASHED
 10
109.102959
 20
273.732239
 11
109.102959
 21
205.732239
  0
ARC
  8
LC-003-002-----0
 62
     1
  6
CONTINUOUS
 10
92.602959
 20
251.232239
 40
1.500000
 50
269.999997
 51
0.000000
  0
ARC
  8
LC-003-002-----0
 62
     1
  6
CONTINUOUS
 10
92.602959
 20
228.232239
 40
1.500000
 50
0.000000
 51
90.000003
  0
ARC
  8
LC-003-002-----0
 62
     1
  6
CONTINUOUS
 10
155.602951
 20
228.232239
 40
1.500000
 50
90.000003
 51
180.000009
  0
ARC
  8
LC-003-002-----0
 62
     1
  6
CONTINUOUS
 10
155.602951
 20
251.232239
 40
1.500000
 50
180.000009
 51
269.999997
  0
LINE
  8
LC-003-002-----0
 62
     1
  6
CONTINUOUS
 10
102.608772
 20
248.232239
 11
102.608772
 21
231.232239
  0
ARC
  8
LC-003-002-----0
 62
     1
  6
CONTINUOUS
 10
104.108772
 20
248.232239
 40
1.500000
 50
90.000003
 51
180.000009
  0
ARC
  8
LC-003-002-----0
 62
     1
  6
CONTINUOUS
 10
104.108772
 20
231.232239
 40
1.500000
 50
180.000009
 51
269.999997
  0
ENDSEC
  0
EOF
