  0
SECTION
  2
HEADER
  9
$LIMMIN
 10
382.716919
 20
-92.950653
  9
$LIMMAX
 10
738.231628
 20
272.465454
  9
$EXTMIN
 10
382.716919
 20
-92.950653
  9
$EXTMAX
 10
738.231628
 20
272.465454
  0
ENDSEC
  0
SECTION
  2
TABLES
  0
TABLE
  2
LTYPE
 70
     3
  0
LTYPE
  2
CONTINUOUS
 70
    64
  3
Ausgezogene Linie
 72
    65
 73
     0
 40
0.0
  0
LTYPE
  2
DASHED
 70
    64
  3
__ __ __ __ __ __ __ __ __ __ __ __ __ __ __
 72
    65
 73
     2
 40
0.75
 49
0.5
 49
-0.25
  0
LTYPE
  2
DASHDOT
 70
    64
  3
__ . __ . __ . __ . __ . __ . __ . __ . __ . __
 72
    65
 73
     4
 40
1.0
 49
0.5
 49
-0.25
 49
0.0
 49
-0.25
  0
ENDTAB
  0
TABLE
  2
LAYER
 70
     4
  0
LAYER
  2
LC-003-002-----0
 70
    64
 62
     7
  6
CONTINUOUS
  0
LAYER
  2
LC-004-006-----0
 70
    64
 62
     7
  6
CONTINUOUS
  0
LAYER
  2
LC-006-012-----0
 70
    64
 62
     7
  6
CONTINUOUS
  0
LAYER
  2
LC-001-150-----0
 70
    64
 62
     7
  6
CONTINUOUS
  0
ENDTAB
  0
TABLE
  2
STYLE
 70
     1
  0
STYLE
  2
TXT8
 70
    64
 40
0.0
 41
1.0
 50
0.0
 71
     0
 42
3.500000
  3
TXT8
  4

  0
ENDTAB
  0
ENDSEC
  0
SECTION
  2
BLOCKS
  0
ENDSEC
  0
SECTION
  2
ENTITIES
  0
LINE
  8
LC-003-002-----0
 62
     1
  6
CONTINUOUS
 10
500.813782
 20
76.930611
 11
500.813782
 21
57.462482
  0
LINE
  8
LC-001-150-----0
 62
     2
  6
CONTINUOUS
 10
440.813782
 20
75.718140
 11
456.890015
 21
73.892052
  0
LINE
  8
LC-004-006-----0
 62
     2
  6
DASHDOT
 10
470.813782
 20
83.763702
 11
470.813782
 21
-92.950653
  0
LINE
  8
LC-001-150-----0
 62
     2
  6
CONTINUOUS
 10
456.890015
 20
73.892052
 11
487.313995
 21
79.355927
  0
LINE
  8
LC-001-150-----0
 62
     2
  6
CONTINUOUS
 10
487.313995
 20
79.355927
 11
500.813782
 21
76.930611
  0
LINE
  8
LC-001-150-----0
 62
     2
  6
CONTINUOUS
 10
440.813782
 20
-86.156960
 11
457.366821
 21
-88.902245
  0
LINE
  8
LC-001-150-----0
 62
     2
  6
CONTINUOUS
 10
457.366821
 20
-88.902245
 11
489.679688
 21
-85.374557
  0
LINE
  8
LC-001-150-----0
 62
     2
  6
CONTINUOUS
 10
489.679688
 20
-85.374557
 11
500.813782
 21
-85.929504
  0
LINE
  8
LC-003-002-----0
 62
     1
  6
CONTINUOUS
 10
440.813782
 20
-67.537514
 11
440.813782
 21
-86.156960
  0
LINE
  8
LC-003-002-----0
 62
     1
  6
CONTINUOUS
 10
500.813782
 20
-67.537514
 11
500.813782
 21
-85.929504
  0
LINE
  8
LC-003-002-----0
 62
     1
  6
CONTINUOUS
 10
440.813782
 20
75.718140
 11
440.813782
 21
57.462482
  0
LINE
  8
LC-006-012-----0
 62
     2
  6
DASHED
 10
440.813782
 20
57.462482
 11
440.813782
 21
-67.537514
  0
LINE
  8
LC-006-012-----0
 62
     2
  6
DASHED
 10
500.813782
 20
57.462482
 11
500.813782
 21
-67.537514
  0
LINE
  8
LC-003-002-----0
 62
     1
  6
CONTINUOUS
 10
390.813782
 20
154.734741
 11
390.813782
 21
142.234741
  0
LINE
  8
LC-003-002-----0
 62
     1
  6
CONTINUOUS
 10
390.813782
 20
142.234741
 11
550.813782
 21
142.234741
  0
LINE
  8
LC-003-002-----0
 62
     1
  6
CONTINUOUS
 10
512.455078
 20
157.234741
 11
548.313782
 21
157.234741
  0
LINE
  8
LC-004-006-----0
 62
     2
  6
DASHDOT
 10
536.813782
 20
161.765533
 11
536.813782
 21
135.743820
  0
LINE
  8
LC-004-006-----0
 62
     2
  6
DASHDOT
 10
406.697632
 20
202.234741
 11
531.939758
 21
202.234741
  0
LINE
  8
LC-003-002-----0
 62
     1
  6
CONTINUOUS
 10
550.813782
 20
154.734741
 11
550.813782
 21
142.234741
  0
LINE
  8
LC-004-006-----0
 62
     2
  6
DASHDOT
 10
470.813782
 20
272.465454
 11
470.813782
 21
135.743820
  0
ARC
  8
LC-003-002-----0
 62
     1
  6
CONTINUOUS
 10
393.313782
 20
154.734741
 40
2.500000
 50
90.000003
 51
180.000009
  0
ARC
  8
LC-003-002-----0
 62
     1
  6
CONTINUOUS
 10
548.313782
 20
154.734741
 40
2.500000
 50
0.000000
 51
90.000003
  0
CIRCLE
  8
LC-003-002-----0
 62
     1
  6
CONTINUOUS
 10
470.813782
 20
202.234741
 40
30.000000
  0
CIRCLE
  8
LC-003-002-----0
 62
     1
  6
CONTINUOUS
 10
470.813782
 20
202.234741
 40
45.000000
  0
CIRCLE
  8
LC-003-002-----0
 62
     1
  6
CONTINUOUS
 10
470.813782
 20
202.234741
 40
40.000000
  0
LINE
  8
LC-003-002-----0
 62
     1
  6
CONTINUOUS
 10
390.813782
 20
38.462482
 11
390.813782
 21
-48.537518
  0
LINE
  8
LC-003-002-----0
 62
     1
  6
CONTINUOUS
 10
550.727966
 20
155.384186
 11
533.582275
 21
219.120163
  0
LINE
  8
LC-003-002-----0
 62
     1
  6
CONTINUOUS
 10
390.823303
 20
154.952637
 11
399.397186
 21
252.952637
  0
LINE
  8
LC-003-002-----0
 62
     1
  6
CONTINUOUS
 10
401.887665
 20
255.234741
 11
432.395050
 21
255.234741
  0
ARC
  8
LC-003-002-----0
 62
     1
  6
CONTINUOUS
 10
401.887665
 20
252.734741
 40
2.500000
 50
90.000003
 51
175.000006
  0
ARC
  8
LC-003-002-----0
 62
     1
  6
CONTINUOUS
 10
432.395050
 20
257.734741
 40
2.500000
 50
269.999997
 51
304.692130
  0
ARC
  8
LC-003-002-----0
 62
     1
  6
CONTINUOUS
 10
470.813782
 20
202.234741
 40
65.000000
 50
15.056754
 51
124.692125
  0
LINE
  8
LC-006-012-----0
 62
     2
  6
DASHED
 10
542.313782
 20
157.234741
 11
542.313782
 21
142.234741
  0
LINE
  8
LC-006-012-----0
 62
     2
  6
DASHED
 10
531.313782
 20
157.234741
 11
531.313782
 21
142.234741
  0
LINE
  8
LC-004-006-----0
 62
     2
  6
DASHDOT
 10
404.813782
 20
161.765533
 11
404.813782
 21
135.743820
  0
LINE
  8
LC-006-012-----0
 62
     2
  6
DASHED
 10
399.313782
 20
157.234741
 11
399.313782
 21
142.234741
  0
LINE
  8
LC-006-012-----0
 62
     2
  6
DASHED
 10
410.313782
 20
157.234741
 11
410.313782
 21
142.234741
  0
CIRCLE
  8
LC-003-002-----0
 62
     1
  6
CONTINUOUS
 10
470.813782
 20
202.234741
 40
57.000000
  0
ARC
  8
LC-003-002-----0
 62
     1
  6
CONTINUOUS
 10
429.172455
 20
159.734741
 40
2.500000
 50
269.999997
 51
45.584689
  0
ARC
  8
LC-003-002-----0
 62
     1
  6
CONTINUOUS
 10
512.455078
 20
159.734741
 40
2.500000
 50
134.415309
 51
269.999997
  0
LINE
  8
LC-003-002-----0
 62
     1
  6
CONTINUOUS
 10
393.313782
 20
157.234741
 11
429.172455
 21
157.234741
  0
LINE
  8
LC-003-002-----0
 62
     1
  6
CONTINUOUS
 10
604.921204
 20
142.234741
 11
696.921204
 21
142.234741
  0
LINE
  8
LC-003-002-----0
 62
     1
  6
CONTINUOUS
 10
696.921204
 20
142.234741
 11
696.921204
 21
154.734741
  0
LINE
  8
LC-003-002-----0
 62
     1
  6
CONTINUOUS
 10
673.421204
 20
157.234741
 11
694.421204
 21
157.234741
  0
LINE
  8
LC-003-002-----0
 62
     1
  6
CONTINUOUS
 10
607.421204
 20
157.234741
 11
628.421204
 21
157.234741
  0
LINE
  8
LC-003-002-----0
 62
     1
  6
CONTINUOUS
 10
604.921204
 20
142.234741
 11
604.921204
 21
154.734741
  0
LINE
  8
LC-004-006-----0
 62
     2
  6
DASHDOT
 10
650.921204
 20
135.743820
 11
650.921204
 21
272.465454
  0
ARC
  8
LC-003-002-----0
 62
     1
  6
CONTINUOUS
 10
607.421204
 20
154.734741
 40
2.500000
 50
90.000003
 51
180.000009
  0
ARC
  8
LC-003-002-----0
 62
     1
  6
CONTINUOUS
 10
694.421204
 20
154.734741
 40
2.500000
 50
0.000000
 51
90.000003
  0
LINE
  8
LC-003-002-----0
 62
     1
  6
CONTINUOUS
 10
605.921204
 20
259.234741
 11
628.421204
 21
259.234741
  0
LINE
  8
LC-003-002-----0
 62
     1
  6
CONTINUOUS
 10
698.421204
 20
147.734741
 11
698.421204
 21
256.734741
  0
LINE
  8
LC-003-002-----0
 62
     1
  6
CONTINUOUS
 10
603.421204
 20
147.734741
 11
603.421204
 21
256.734741
  0
LINE
  8
LC-003-002-----0
 62
     1
  6
CONTINUOUS
 10
393.313782
 20
-51.037518
 11
414.022491
 21
-51.037518
  0
ARC
  8
LC-003-002-----0
 62
     1
  6
CONTINUOUS
 10
605.921204
 20
256.734741
 40
2.500000
 50
90.000003
 51
180.000009
  0
ARC
  8
LC-003-002-----0
 62
     1
  6
CONTINUOUS
 10
695.921204
 20
256.734741
 40
2.500000
 50
0.000000
 51
90.000003
  0
LINE
  8
LC-003-002-----0
 62
     1
  6
CONTINUOUS
 10
550.813782
 20
38.462482
 11
550.813782
 21
-48.537518
  0
LINE
  8
LC-003-002-----0
 62
     1
  6
CONTINUOUS
 10
393.313782
 20
40.962482
 11
414.022491
 21
40.962482
  0
ARC
  8
LC-003-002-----0
 62
     1
  6
CONTINUOUS
 10
695.921204
 20
147.734741
 40
2.500000
 50
293.578179
 51
0.000000
  0
ARC
  8
LC-003-002-----0
 62
     1
  6
CONTINUOUS
 10
605.921204
 20
147.734741
 40
2.500000
 50
180.000009
 51
246.421822
  0
LINE
  8
LC-003-002-----0
 62
     1
  6
CONTINUOUS
 10
633.421204
 20
267.234741
 11
668.421204
 21
267.234741
  0
LINE
  8
LC-003-002-----0
 62
     1
  6
CONTINUOUS
 10
630.921204
 20
159.734741
 11
630.921204
 21
264.734741
  0
LINE
  8
LC-003-002-----0
 62
     1
  6
CONTINUOUS
 10
670.921204
 20
159.734741
 11
670.921204
 21
264.734741
  0
ARC
  8
LC-003-002-----0
 62
     1
  6
CONTINUOUS
 10
633.421204
 20
264.734741
 40
2.500000
 50
90.000003
 51
180.000009
  0
ARC
  8
LC-003-002-----0
 62
     1
  6
CONTINUOUS
 10
668.421204
 20
264.734741
 40
2.500000
 50
0.000000
 51
90.000003
  0
ARC
  8
LC-003-002-----0
 62
     1
  6
CONTINUOUS
 10
673.421204
 20
261.734741
 40
2.500000
 50
180.000009
 51
269.999997
  0
ARC
  8
LC-003-002-----0
 62
     1
  6
CONTINUOUS
 10
628.421204
 20
261.734741
 40
2.500000
 50
269.999997
 51
0.000000
  0
ARC
  8
LC-003-002-----0
 62
     1
  6
CONTINUOUS
 10
470.813782
 20
199.884750
 40
49.549999
 50
112.672870
 51
67.327128
  0
LINE
  8
LC-003-002-----0
 62
     1
  6
CONTINUOUS
 10
673.421204
 20
259.234741
 11
695.921204
 21
259.234741
  0
ARC
  8
LC-003-002-----0
 62
     1
  6
CONTINUOUS
 10
673.421204
 20
159.734741
 40
2.500000
 50
180.000009
 51
269.999997
  0
ARC
  8
LC-003-002-----0
 62
     1
  6
CONTINUOUS
 10
628.421204
 20
159.734741
 40
2.500000
 50
269.999997
 51
0.000000
  0
ARC
  8
LC-003-002-----0
 62
     1
  6
CONTINUOUS
 10
695.921204
 20
147.734741
 40
2.500000
 50
293.578179
 51
0.000000
  0
LINE
  8
LC-003-002-----0
 62
     1
  6
CONTINUOUS
 10
600.271179
 20
150.334747
 11
600.271179
 21
258.069733
  0
LINE
  8
LC-003-002-----0
 62
     1
  6
CONTINUOUS
 10
600.271179
 20
150.334747
 11
603.421204
 21
150.334747
  0
LINE
  8
LC-003-002-----0
 62
     1
  6
CONTINUOUS
 10
600.271179
 20
258.069733
 11
603.421204
 21
258.069733
  0
LINE
  8
LC-003-002-----0
 62
     1
  6
CONTINUOUS
 10
600.271179
 20
245.605560
 11
603.421204
 21
245.605560
  0
LINE
  8
LC-003-002-----0
 62
     1
  6
CONTINUOUS
 10
451.713776
 20
245.605560
 11
453.798889
 21
252.011520
  0
LINE
  8
LC-003-002-----0
 62
     1
  6
CONTINUOUS
 10
459.097778
 20
256.551453
 11
468.463776
 21
258.069733
  0
LINE
  8
LC-003-002-----0
 62
     1
  6
CONTINUOUS
 10
468.463776
 20
247.173340
 11
468.463776
 21
258.069733
  0
LINE
  8
LC-003-002-----0
 62
     1
  6
CONTINUOUS
 10
473.163788
 20
247.173340
 11
473.163788
 21
258.069733
  0
LINE
  8
LC-003-002-----0
 62
     1
  6
CONTINUOUS
 10
473.163788
 20
258.069733
 11
482.529785
 21
256.551453
  0
LINE
  8
LC-003-002-----0
 62
     1
  6
CONTINUOUS
 10
489.913788
 20
245.605560
 11
487.828644
 21
252.011520
  0
CIRCLE
  8
LC-003-002-----0
 62
     1
  6
CONTINUOUS
 10
478.163788
 20
251.369720
 40
2.500000
  0
LINE
  8
LC-003-002-----0
 62
     1
  6
CONTINUOUS
 10
603.421204
 20
256.734741
 11
603.421204
 21
258.069733
  0
CIRCLE
  8
LC-003-002-----0
 62
     1
  6
CONTINUOUS
 10
463.463776
 20
251.369720
 40
2.500000
  0
ARC
  8
LC-003-002-----0
 62
     1
  6
CONTINUOUS
 10
460.169891
 20
249.937775
 40
6.700000
 50
99.207883
 51
161.970081
  0
ARC
  8
LC-003-002-----0
 62
     1
  6
CONTINUOUS
 10
481.457672
 20
249.937775
 40
6.700000
 50
18.029918
 51
80.792115
  0
LINE
  8
LC-003-002-----0
 62
     1
  6
CONTINUOUS
 10
573.286438
 20
232.234741
 11
588.421204
 21
232.234741
  0
LINE
  8
LC-003-002-----0
 62
     1
  6
CONTINUOUS
 10
701.571167
 20
150.334747
 11
701.571167
 21
258.069733
  0
LINE
  8
LC-003-002-----0
 62
     1
  6
CONTINUOUS
 10
701.571167
 20
150.334747
 11
698.421204
 21
150.334747
  0
LINE
  8
LC-003-002-----0
 62
     1
  6
CONTINUOUS
 10
701.571167
 20
258.069733
 11
698.421204
 21
258.069733
  0
LINE
  8
LC-003-002-----0
 62
     1
  6
CONTINUOUS
 10
701.571167
 20
245.605560
 11
698.421204
 21
245.605560
  0
LINE
  8
LC-003-002-----0
 62
     1
  6
CONTINUOUS
 10
698.421204
 20
256.734741
 11
698.421204
 21
258.069733
  0
LINE
  8
LC-003-002-----0
 62
     1
  6
CONTINUOUS
 10
572.537659
 20
172.234741
 11
588.421204
 21
172.234741
  0
LINE
  8
LC-004-006-----0
 62
     2
  6
DASHDOT
 10
618.421204
 20
161.765533
 11
618.421204
 21
135.743820
  0
LINE
  8
LC-004-006-----0
 62
     2
  6
DASHDOT
 10
683.421204
 20
161.765533
 11
683.421204
 21
135.743820
  0
LINE
  8
LC-006-012-----0
 62
     2
  6
DASHED
 10
688.921204
 20
157.234741
 11
688.921204
 21
142.234741
  0
LINE
  8
LC-006-012-----0
 62
     2
  6
DASHED
 10
677.921204
 20
157.234741
 11
677.921204
 21
142.234741
  0
LINE
  8
LC-003-002-----0
 62
     1
  6
CONTINUOUS
 10
590.921204
 20
247.234741
 11
600.271179
 21
247.234741
  0
LINE
  8
LC-006-012-----0
 62
     2
  6
DASHED
 10
612.921204
 20
157.234741
 11
612.921204
 21
142.234741
  0
LINE
  8
LC-006-012-----0
 62
     2
  6
DASHED
 10
623.921204
 20
157.234741
 11
623.921204
 21
142.234741
  0
LINE
  8
LC-003-002-----0
 62
     1
  6
CONTINUOUS
 10
590.921204
 20
157.234741
 11
600.271179
 21
157.234741
  0
LINE
  8
LC-003-002-----0
 62
     1
  6
CONTINUOUS
 10
588.421204
 20
159.734741
 11
588.421204
 21
244.734741
  0
ARC
  8
LC-003-002-----0
 62
     1
  6
CONTINUOUS
 10
590.921204
 20
244.734741
 40
2.500000
 50
90.000003
 51
180.000009
  0
ARC
  8
LC-003-002-----0
 62
     1
  6
CONTINUOUS
 10
590.921204
 20
159.734741
 40
2.500000
 50
180.000009
 51
269.999997
  0
LINE
  8
LC-003-002-----0
 62
     1
  6
CONTINUOUS
 10
713.421204
 20
159.734741
 11
713.421204
 21
244.734741
  0
ARC
  8
LC-003-002-----0
 62
     1
  6
CONTINUOUS
 10
710.921204
 20
244.734741
 40
2.500000
 50
0.000000
 51
90.000003
  0
ARC
  8
LC-003-002-----0
 62
     1
  6
CONTINUOUS
 10
710.921204
 20
159.734741
 40
2.500000
 50
269.999997
 51
0.000000
  0
LINE
  8
LC-004-006-----0
 62
     2
  6
DASHDOT
 10
566.979858
 20
202.234741
 11
738.231628
 21
202.234741
  0
LINE
  8
LC-006-012-----0
 62
     2
  6
DASHED
 10
600.271179
 20
247.234741
 11
701.571167
 21
247.234741
  0
LINE
  8
LC-006-012-----0
 62
     2
  6
DASHED
 10
600.271179
 20
157.234741
 11
701.571167
 21
157.234741
  0
LINE
  8
LC-003-002-----0
 62
     1
  6
CONTINUOUS
 10
701.571167
 20
157.234741
 11
710.921204
 21
157.234741
  0
LINE
  8
LC-003-002-----0
 62
     1
  6
CONTINUOUS
 10
701.571167
 20
247.234741
 11
710.921204
 21
247.234741
  0
LINE
  8
LC-001-150-----0
 62
     2
  6
CONTINUOUS
 10
731.105225
 20
172.234741
 11
732.920837
 21
188.744965
  0
LINE
  8
LC-001-150-----0
 62
     2
  6
CONTINUOUS
 10
732.920837
 20
188.744965
 11
731.855957
 21
215.498322
  0
LINE
  8
LC-001-150-----0
 62
     2
  6
CONTINUOUS
 10
731.855957
 20
215.498322
 11
732.094299
 21
232.234741
  0
LINE
  8
LC-001-150-----0
 62
     2
  6
CONTINUOUS
 10
572.537659
 20
172.234741
 11
573.887939
 21
192.413986
  0
LINE
  8
LC-001-150-----0
 62
     2
  6
CONTINUOUS
 10
573.887939
 20
192.413986
 11
572.290649
 21
216.945190
  0
LINE
  8
LC-001-150-----0
 62
     2
  6
CONTINUOUS
 10
572.290649
 20
216.945190
 11
573.286438
 21
232.234741
  0
LINE
  8
LC-003-002-----0
 62
     1
  6
CONTINUOUS
 10
713.421204
 20
172.234741
 11
731.105225
 21
172.234741
  0
LINE
  8
LC-003-002-----0
 62
     1
  6
CONTINUOUS
 10
713.421204
 20
232.234741
 11
732.094299
 21
232.234741
  0
LINE
  8
LC-006-012-----0
 62
     2
  6
DASHED
 10
588.421204
 20
232.234741
 11
713.421204
 21
232.234741
  0
LINE
  8
LC-006-012-----0
 62
     2
  6
DASHED
 10
588.421204
 20
172.234741
 11
713.421204
 21
172.234741
  0
ARC
  8
LC-003-002-----0
 62
     1
  6
CONTINUOUS
 10
393.313782
 20
38.462482
 40
2.500000
 50
90.000003
 51
180.000009
  0
ARC
  8
LC-003-002-----0
 62
     1
  6
CONTINUOUS
 10
548.313782
 20
38.462482
 40
2.500000
 50
0.000000
 51
90.000003
  0
ARC
  8
LC-003-002-----0
 62
     1
  6
CONTINUOUS
 10
548.313782
 20
-48.537518
 40
2.500000
 50
269.999997
 51
0.000000
  0
ARC
  8
LC-003-002-----0
 62
     1
  6
CONTINUOUS
 10
393.313782
 20
-48.537518
 40
2.500000
 50
180.000009
 51
269.999997
  0
LINE
  8
LC-004-006-----0
 62
     2
  6
DASHDOT
 10
382.716919
 20
-5.037516
 11
560.491760
 21
-5.037516
  0
LINE
  8
LC-004-006-----0
 62
     2
  6
DASHDOT
 10
404.813782
 20
37.072880
 11
404.813782
 21
16.667255
  0
LINE
  8
LC-004-006-----0
 62
     2
  6
DASHDOT
 10
395.570160
 20
27.462484
 11
414.358582
 21
27.462484
  0
CIRCLE
  8
LC-003-002-----0
 62
     1
  6
CONTINUOUS
 10
404.813782
 20
27.462484
 40
5.500000
  0
LINE
  8
LC-004-006-----0
 62
     2
  6
DASHDOT
 10
404.813782
 20
-47.147911
 11
404.813782
 21
-26.742285
  0
LINE
  8
LC-004-006-----0
 62
     2
  6
DASHDOT
 10
395.570160
 20
-37.537518
 11
414.358582
 21
-37.537518
  0
CIRCLE
  8
LC-003-002-----0
 62
     1
  6
CONTINUOUS
 10
404.813782
 20
-37.537518
 40
5.500000
  0
LINE
  8
LC-004-006-----0
 62
     2
  6
DASHDOT
 10
536.813782
 20
37.072880
 11
536.813782
 21
16.667255
  0
LINE
  8
LC-004-006-----0
 62
     2
  6
DASHDOT
 10
546.057373
 20
27.462484
 11
527.268982
 21
27.462484
  0
CIRCLE
  8
LC-003-002-----0
 62
     1
  6
CONTINUOUS
 10
536.813782
 20
27.462484
 40
5.500000
  0
LINE
  8
LC-004-006-----0
 62
     2
  6
DASHDOT
 10
536.813782
 20
-47.147911
 11
536.813782
 21
-26.742285
  0
LINE
  8
LC-004-006-----0
 62
     2
  6
DASHDOT
 10
546.057373
 20
-37.537518
 11
527.268982
 21
-37.537518
  0
CIRCLE
  8
LC-003-002-----0
 62
     1
  6
CONTINUOUS
 10
536.813782
 20
-37.537518
 40
5.500000
  0
LINE
  8
LC-003-002-----0
 62
     1
  6
CONTINUOUS
 10
390.813782
 20
14.962484
 11
550.813782
 21
14.962484
  0
LINE
  8
LC-003-002-----0
 62
     1
  6
CONTINUOUS
 10
390.813782
 20
-25.037516
 11
550.813782
 21
-25.037516
  0
LINE
  8
LC-003-002-----0
 62
     1
  6
CONTINUOUS
 10
399.397186
 20
12.462484
 11
399.397186
 21
-22.537516
  0
ARC
  8
LC-003-002-----0
 62
     1
  6
CONTINUOUS
 10
401.897186
 20
12.462484
 40
2.500000
 50
90.000003
 51
180.000009
  0
ARC
  8
LC-003-002-----0
 62
     1
  6
CONTINUOUS
 10
401.897186
 20
-22.537516
 40
2.500000
 50
180.000009
 51
269.999997
  0
LINE
  8
LC-003-002-----0
 62
     1
  6
CONTINUOUS
 10
413.813782
 20
39.962482
 11
413.813782
 21
14.962486
  0
LINE
  8
LC-003-002-----0
 62
     1
  6
CONTINUOUS
 10
527.813782
 20
39.962482
 11
527.813782
 21
14.962486
  0
LINE
  8
LC-003-002-----0
 62
     1
  6
CONTINUOUS
 10
416.313782
 20
42.462482
 11
525.313782
 21
42.462482
  0
LINE
  8
LC-003-002-----0
 62
     1
  6
CONTINUOUS
 10
416.313782
 20
-52.537518
 11
525.313782
 21
-52.537518
  0
ARC
  8
LC-003-002-----0
 62
     1
  6
CONTINUOUS
 10
416.313782
 20
39.962482
 40
2.500000
 50
90.000003
 51
180.000009
  0
ARC
  8
LC-003-002-----0
 62
     1
  6
CONTINUOUS
 10
525.313782
 20
39.962482
 40
2.500000
 50
0.000000
 51
90.000003
  0
ARC
  8
LC-003-002-----0
 62
     1
  6
CONTINUOUS
 10
525.313782
 20
-50.037518
 40
2.500000
 50
269.999997
 51
0.000000
  0
ARC
  8
LC-003-002-----0
 62
     1
  6
CONTINUOUS
 10
416.313782
 20
-50.037518
 40
2.500000
 50
180.000009
 51
269.999997
  0
LINE
  8
LC-006-012-----0
 62
     2
  6
DASHED
 10
414.022491
 20
-51.037518
 11
527.605042
 21
-51.037518
  0
LINE
  8
LC-003-002-----0
 62
     1
  6
CONTINUOUS
 10
527.605042
 20
-51.037518
 11
548.313782
 21
-51.037518
  0
LINE
  8
LC-006-012-----0
 62
     2
  6
DASHED
 10
414.022491
 20
40.962482
 11
527.605042
 21
40.962482
  0
LINE
  8
LC-003-002-----0
 62
     1
  6
CONTINUOUS
 10
527.605042
 20
40.962482
 11
548.313782
 21
40.962482
  0
LINE
  8
LC-003-002-----0
 62
     1
  6
CONTINUOUS
 10
413.813782
 20
-25.037516
 11
413.813782
 21
-50.037518
  0
LINE
  8
LC-003-002-----0
 62
     1
  6
CONTINUOUS
 10
527.813782
 20
-25.037516
 11
527.813782
 21
-50.037518
  0
LINE
  8
LC-003-002-----0
 62
     1
  6
CONTINUOUS
 10
421.319550
 20
45.612484
 11
421.319550
 21
42.462482
  0
LINE
  8
LC-003-002-----0
 62
     1
  6
CONTINUOUS
 10
520.308044
 20
45.612484
 11
520.308044
 21
42.462482
  0
LINE
  8
LC-003-002-----0
 62
     1
  6
CONTINUOUS
 10
468.463776
 20
45.612484
 11
468.463776
 21
42.462482
  0
LINE
  8
LC-003-002-----0
 62
     1
  6
CONTINUOUS
 10
473.163788
 20
45.612484
 11
473.163788
 21
42.462482
  0
LINE
  8
LC-003-002-----0
 62
     1
  6
CONTINUOUS
 10
421.319550
 20
45.612484
 11
520.308044
 21
45.612484
  0
LINE
  8
LC-003-002-----0
 62
     1
  6
CONTINUOUS
 10
421.319550
 20
-55.687515
 11
421.319550
 21
-52.537518
  0
LINE
  8
LC-003-002-----0
 62
     1
  6
CONTINUOUS
 10
520.308044
 20
-55.687515
 11
520.308044
 21
-52.537518
  0
LINE
  8
LC-003-002-----0
 62
     1
  6
CONTINUOUS
 10
468.463776
 20
-55.687515
 11
468.463776
 21
-52.537518
  0
LINE
  8
LC-003-002-----0
 62
     1
  6
CONTINUOUS
 10
473.163788
 20
-55.687515
 11
473.163788
 21
-52.537518
  0
LINE
  8
LC-003-002-----0
 62
     1
  6
CONTINUOUS
 10
421.319550
 20
-55.687515
 11
520.308044
 21
-55.687515
  0
LINE
  8
LC-003-002-----0
 62
     1
  6
CONTINUOUS
 10
425.813782
 20
54.962482
 11
425.813782
 21
45.612484
  0
LINE
  8
LC-003-002-----0
 62
     1
  6
CONTINUOUS
 10
515.813782
 20
54.962482
 11
515.813782
 21
45.612484
  0
LINE
  8
LC-003-002-----0
 62
     1
  6
CONTINUOUS
 10
428.313782
 20
57.462482
 11
513.313782
 21
57.462482
  0
LINE
  8
LC-003-002-----0
 62
     1
  6
CONTINUOUS
 10
428.313782
 20
-67.537514
 11
513.313782
 21
-67.537514
  0
ARC
  8
LC-003-002-----0
 62
     1
  6
CONTINUOUS
 10
428.313782
 20
54.962482
 40
2.500000
 50
90.000003
 51
180.000009
  0
ARC
  8
LC-003-002-----0
 62
     1
  6
CONTINUOUS
 10
513.313782
 20
54.962482
 40
2.500000
 50
0.000000
 51
90.000003
  0
ARC
  8
LC-003-002-----0
 62
     1
  6
CONTINUOUS
 10
513.313782
 20
-65.037514
 40
2.500000
 50
269.999997
 51
0.000000
  0
ARC
  8
LC-003-002-----0
 62
     1
  6
CONTINUOUS
 10
428.313782
 20
-65.037514
 40
2.500000
 50
180.000009
 51
269.999997
  0
LINE
  8
LC-003-002-----0
 62
     1
  6
CONTINUOUS
 10
425.813782
 20
-55.687515
 11
425.813782
 21
-65.037514
  0
LINE
  8
LC-003-002-----0
 62
     1
  6
CONTINUOUS
 10
515.813782
 20
-55.687515
 11
515.813782
 21
-65.037514
  0
LINE
  8
LC-006-012-----0
 62
     2
  6
DASHED
 10
515.813782
 20
45.612484
 11
515.813782
 21
-55.687515
  0
LINE
  8
LC-006-012-----0
 62
     2
  6
DASHED
 10
425.813782
 20
45.612484
 11
425.813782
 21
-55.687515
  0
LINE
  8
LC-003-002-----0
 62
     1
  6
CONTINUOUS
 10
633.921204
 20
255.234741
 11
667.921204
 21
255.234741
  0
ARC
  8
LC-003-002-----0
 62
     1
  6
CONTINUOUS
 10
667.921204
 20
252.234741
 40
3.000000
 50
0.000000
 51
90.000003
  0
ARC
  8
LC-003-002-----0
 62
     1
  6
CONTINUOUS
 10
633.921204
 20
252.234741
 40
3.000000
 50
90.000003
 51
180.000009
  0
LINE
  8
LC-003-002-----0
 62
     1
  6
CONTINUOUS
 10
433.817963
 20
11.962484
 11
433.817963
 21
-22.037516
  0
ARC
  8
LC-003-002-----0
 62
     1
  6
CONTINUOUS
 10
436.817963
 20
11.962484
 40
3.000000
 50
90.000003
 51
180.000009
  0
ARC
  8
LC-003-002-----0
 62
     1
  6
CONTINUOUS
 10
436.817963
 20
-22.037516
 40
3.000000
 50
180.000009
 51
269.999997
  0
ENDSEC
  0
EOF
