  0
SECTION
  2
HEADER
  9
$LIMMIN
 10
788.568237
 20
219.041870
  9
$LIMMAX
 10
1361.531006
 20
669.505066
  9
$EXTMIN
 10
788.568237
 20
219.041870
  9
$EXTMAX
 10
1361.531006
 20
669.505066
  0
ENDSEC
  0
SECTION
  2
TABLES
  0
TABLE
  2
LTYPE
 70
     3
  0
LTYPE
  2
CONTINUOUS
 70
    64
  3
Ausgezogene Linie
 72
    65
 73
     0
 40
0.0
  0
LTYPE
  2
DASHED
 70
    64
  3
__ __ __ __ __ __ __ __ __ __ __ __ __ __ __
 72
    65
 73
     2
 40
0.75
 49
0.5
 49
-0.25
  0
LTYPE
  2
DASHDOT
 70
    64
  3
__ . __ . __ . __ . __ . __ . __ . __ . __ . __
 72
    65
 73
     4
 40
1.0
 49
0.5
 49
-0.25
 49
0.0
 49
-0.25
  0
ENDTAB
  0
TABLE
  2
LAYER
 70
     4
  0
LAYER
  2
LC-003-002-----0
 70
    64
 62
     7
  6
CONTINUOUS
  0
LAYER
  2
LC-004-006-----0
 70
    64
 62
     7
  6
CONTINUOUS
  0
LAYER
  2
LC-006-012-----0
 70
    64
 62
     7
  6
CONTINUOUS
  0
LAYER
  2
LC-001-150-----0
 70
    64
 62
     7
  6
CONTINUOUS
  0
ENDTAB
  0
TABLE
  2
STYLE
 70
     1
  0
STYLE
  2
TXT8
 70
    64
 40
0.0
 41
1.0
 50
0.0
 71
     0
 42
3.500000
  3
TXT8
  4

  0
ENDTAB
  0
ENDSEC
  0
SECTION
  2
BLOCKS
  0
ENDSEC
  0
SECTION
  2
ENTITIES
  0
LINE
  8
LC-003-002-----0
 62
     1
  6
CONTINUOUS
 10
796.053772
 20
510.028290
 11
796.053772
 21
491.028290
  0
LINE
  8
LC-003-002-----0
 62
     1
  6
CONTINUOUS
 10
796.053772
 20
491.028290
 11
996.053772
 21
491.028290
  0
LINE
  8
LC-003-002-----0
 62
     1
  6
CONTINUOUS
 10
799.053772
 20
513.028320
 11
840.745544
 21
513.028320
  0
LINE
  8
LC-003-002-----0
 62
     1
  6
CONTINUOUS
 10
996.053772
 20
510.028290
 11
996.053772
 21
491.028290
  0
ARC
  8
LC-003-002-----0
 62
     1
  6
CONTINUOUS
 10
799.053772
 20
510.028290
 40
3.000000
 50
90.000003
 51
180.000009
  0
ARC
  8
LC-003-002-----0
 62
     1
  6
CONTINUOUS
 10
993.053772
 20
510.028290
 40
3.000000
 50
0.000000
 51
90.000003
  0
LINE
  8
LC-004-006-----0
 62
     2
  6
DASHDOT
 10
896.053772
 20
484.634918
 11
896.053772
 21
669.505066
  0
LINE
  8
LC-004-006-----0
 62
     2
  6
DASHDOT
 10
815.497253
 20
571.028320
 11
977.663879
 21
571.028320
  0
ARC
  8
LC-003-002-----0
 62
     1
  6
CONTINUOUS
 10
896.053772
 20
571.028320
 40
90.000000
 50
8.437164
 51
126.249326
  0
CIRCLE
  8
LC-003-002-----0
 62
     1
  6
CONTINUOUS
 10
896.053772
 20
571.028320
 40
40.000000
  0
CIRCLE
  8
LC-003-002-----0
 62
     1
  6
CONTINUOUS
 10
896.053772
 20
571.028320
 40
60.000000
  0
CIRCLE
  8
LC-003-002-----0
 62
     1
  6
CONTINUOUS
 10
896.053772
 20
571.028320
 40
55.000000
  0
LINE
  8
LC-003-002-----0
 62
     1
  6
CONTINUOUS
 10
996.021301
 20
510.468475
 11
985.079712
 21
584.233521
  0
LINE
  8
LC-003-002-----0
 62
     1
  6
CONTINUOUS
 10
796.065186
 20
510.289764
 11
807.438721
 21
640.289795
  0
LINE
  8
LC-003-002-----0
 62
     1
  6
CONTINUOUS
 10
841.062866
 20
643.028320
 11
810.427307
 21
643.028320
  0
ARC
  8
LC-003-002-----0
 62
     1
  6
CONTINUOUS
 10
810.427307
 20
640.028320
 40
3.000000
 50
90.000003
 51
175.000006
  0
ARC
  8
LC-003-002-----0
 62
     1
  6
CONTINUOUS
 10
841.062866
 20
646.028320
 40
3.000000
 50
269.999997
 51
306.249321
  0
LINE
  8
LC-004-006-----0
 62
     2
  6
DASHDOT
 10
981.053772
 20
484.634918
 11
981.053772
 21
519.595215
  0
LINE
  8
LC-006-012-----0
 62
     2
  6
DASHED
 10
987.553772
 20
491.028290
 11
987.553772
 21
513.028320
  0
LINE
  8
LC-006-012-----0
 62
     2
  6
DASHED
 10
974.553772
 20
491.028290
 11
974.553772
 21
513.028320
  0
LINE
  8
LC-004-006-----0
 62
     2
  6
DASHDOT
 10
811.053772
 20
484.634918
 11
811.053772
 21
519.595215
  0
LINE
  8
LC-006-012-----0
 62
     2
  6
DASHED
 10
804.553772
 20
491.028290
 11
804.553772
 21
513.028320
  0
LINE
  8
LC-006-012-----0
 62
     2
  6
DASHED
 10
817.553772
 20
491.028290
 11
817.553772
 21
513.028320
  0
LINE
  8
LC-003-002-----0
 62
     1
  6
CONTINUOUS
 10
951.362000
 20
513.028320
 11
993.053772
 21
513.028320
  0
CIRCLE
  8
LC-003-002-----0
 62
     1
  6
CONTINUOUS
 10
896.053772
 20
571.028320
 40
75.000000
  0
ARC
  8
LC-003-002-----0
 62
     1
  6
CONTINUOUS
 10
840.745544
 20
516.028320
 40
3.000000
 50
269.999997
 51
44.839902
  0
ARC
  8
LC-003-002-----0
 62
     1
  6
CONTINUOUS
 10
951.362000
 20
516.028320
 40
3.000000
 50
135.160100
 51
269.999997
  0
ARC
  8
LC-003-002-----0
 62
     1
  6
CONTINUOUS
 10
896.053772
 20
567.728271
 40
66.150002
 50
112.955913
 51
67.044092
  0
LINE
  8
LC-003-002-----0
 62
     1
  6
CONTINUOUS
 10
921.853760
 20
628.639587
 11
919.064819
 21
637.040833
  0
LINE
  8
LC-003-002-----0
 62
     1
  6
CONTINUOUS
 10
911.996216
 20
643.083923
 11
899.353760
 21
645.181396
  0
LINE
  8
LC-003-002-----0
 62
     1
  6
CONTINUOUS
 10
899.353760
 20
630.937500
 11
899.353760
 21
645.181396
  0
LINE
  8
LC-003-002-----0
 62
     1
  6
CONTINUOUS
 10
892.753784
 20
630.937500
 11
892.753784
 21
645.181396
  0
LINE
  8
LC-003-002-----0
 62
     1
  6
CONTINUOUS
 10
892.753784
 20
645.181396
 11
880.111328
 21
643.083923
  0
LINE
  8
LC-003-002-----0
 62
     1
  6
CONTINUOUS
 10
870.253784
 20
628.639587
 11
873.042725
 21
637.040833
  0
CIRCLE
  8
LC-003-002-----0
 62
     1
  6
CONTINUOUS
 10
885.253784
 20
636.181396
 40
3.750000
  0
CIRCLE
  8
LC-003-002-----0
 62
     1
  6
CONTINUOUS
 10
906.853760
 20
636.181396
 40
3.750000
  0
ARC
  8
LC-003-002-----0
 62
     1
  6
CONTINUOUS
 10
910.523132
 20
634.205261
 40
9.000000
 50
18.364581
 51
80.579874
  0
ARC
  8
LC-003-002-----0
 62
     1
  6
CONTINUOUS
 10
881.584351
 20
634.205261
 40
9.000000
 50
99.420124
 51
161.635416
  0
LINE
  8
LC-003-002-----0
 62
     1
  6
CONTINUOUS
 10
796.053772
 20
273.039276
 11
796.053772
 21
389.039276
  0
LINE
  8
LC-003-002-----0
 62
     1
  6
CONTINUOUS
 10
799.053772
 20
392.039276
 11
821.455688
 21
392.039276
  0
LINE
  8
LC-003-002-----0
 62
     1
  6
CONTINUOUS
 10
996.053772
 20
273.039276
 11
996.053772
 21
389.039276
  0
LINE
  8
LC-003-002-----0
 62
     1
  6
CONTINUOUS
 10
799.053772
 20
270.039276
 11
821.455688
 21
270.039276
  0
ARC
  8
LC-003-002-----0
 62
     1
  6
CONTINUOUS
 10
993.053772
 20
273.039276
 40
3.000000
 50
269.999997
 51
0.000000
  0
ARC
  8
LC-003-002-----0
 62
     1
  6
CONTINUOUS
 10
799.053772
 20
273.039276
 40
3.000000
 50
180.000009
 51
269.999997
  0
ARC
  8
LC-003-002-----0
 62
     1
  6
CONTINUOUS
 10
799.053772
 20
389.039276
 40
3.000000
 50
90.000003
 51
180.000009
  0
ARC
  8
LC-003-002-----0
 62
     1
  6
CONTINUOUS
 10
993.053772
 20
389.039276
 40
3.000000
 50
0.000000
 51
90.000003
  0
LINE
  8
LC-004-006-----0
 62
     2
  6
DASHDOT
 10
788.568237
 20
331.039276
 11
1007.065491
 21
331.039276
  0
LINE
  8
LC-004-006-----0
 62
     2
  6
DASHDOT
 10
800.928467
 20
286.039276
 11
821.309509
 21
286.039276
  0
LINE
  8
LC-004-006-----0
 62
     2
  6
DASHDOT
 10
811.053772
 20
276.036621
 11
811.053772
 21
295.347717
  0
CIRCLE
  8
LC-003-002-----0
 62
     1
  6
CONTINUOUS
 10
811.053772
 20
286.039276
 40
6.500000
  0
LINE
  8
LC-004-006-----0
 62
     2
  6
DASHDOT
 10
800.928467
 20
376.039276
 11
821.309509
 21
376.039276
  0
LINE
  8
LC-004-006-----0
 62
     2
  6
DASHDOT
 10
811.053772
 20
386.041931
 11
811.053772
 21
366.730865
  0
CIRCLE
  8
LC-003-002-----0
 62
     1
  6
CONTINUOUS
 10
811.053772
 20
376.039276
 40
6.500000
  0
LINE
  8
LC-004-006-----0
 62
     2
  6
DASHDOT
 10
991.179077
 20
286.039276
 11
970.797974
 21
286.039276
  0
LINE
  8
LC-004-006-----0
 62
     2
  6
DASHDOT
 10
981.053772
 20
276.036621
 11
981.053772
 21
295.347717
  0
CIRCLE
  8
LC-003-002-----0
 62
     1
  6
CONTINUOUS
 10
981.053772
 20
286.039276
 40
6.500000
  0
LINE
  8
LC-004-006-----0
 62
     2
  6
DASHDOT
 10
991.179077
 20
376.039276
 11
970.797974
 21
376.039276
  0
LINE
  8
LC-004-006-----0
 62
     2
  6
DASHDOT
 10
981.053772
 20
386.041931
 11
981.053772
 21
366.730865
  0
CIRCLE
  8
LC-003-002-----0
 62
     1
  6
CONTINUOUS
 10
981.053772
 20
376.039276
 40
6.500000
  0
LINE
  8
LC-003-002-----0
 62
     1
  6
CONTINUOUS
 10
796.053772
 20
361.039276
 11
996.053772
 21
361.039276
  0
LINE
  8
LC-003-002-----0
 62
     1
  6
CONTINUOUS
 10
796.053772
 20
301.039276
 11
996.053772
 21
301.039276
  0
LINE
  8
LC-003-002-----0
 62
     1
  6
CONTINUOUS
 10
841.062866
 20
304.039276
 11
841.062866
 21
358.039276
  0
LINE
  8
LC-003-002-----0
 62
     1
  6
CONTINUOUS
 10
807.438721
 20
304.039276
 11
807.438721
 21
358.039276
  0
ARC
  8
LC-003-002-----0
 62
     1
  6
CONTINUOUS
 10
810.438721
 20
304.039276
 40
3.000000
 50
180.000009
 51
269.999997
  0
ARC
  8
LC-003-002-----0
 62
     1
  6
CONTINUOUS
 10
810.438721
 20
358.039276
 40
3.000000
 50
90.000003
 51
180.000009
  0
ARC
  8
LC-003-002-----0
 62
     1
  6
CONTINUOUS
 10
844.062866
 20
358.039276
 40
3.000000
 50
90.000003
 51
180.000009
  0
ARC
  8
LC-003-002-----0
 62
     1
  6
CONTINUOUS
 10
844.062866
 20
304.039276
 40
3.000000
 50
180.000009
 51
269.999997
  0
LINE
  8
LC-003-002-----0
 62
     1
  6
CONTINUOUS
 10
821.053772
 20
271.539276
 11
821.053772
 21
301.039276
  0
LINE
  8
LC-003-002-----0
 62
     1
  6
CONTINUOUS
 10
971.053772
 20
271.539276
 11
971.053772
 21
301.039276
  0
LINE
  8
LC-003-002-----0
 62
     1
  6
CONTINUOUS
 10
824.053772
 20
393.539276
 11
968.053772
 21
393.539276
  0
LINE
  8
LC-003-002-----0
 62
     1
  6
CONTINUOUS
 10
824.053772
 20
268.539276
 11
968.053772
 21
268.539276
  0
ARC
  8
LC-003-002-----0
 62
     1
  6
CONTINUOUS
 10
968.053772
 20
271.539276
 40
3.000000
 50
269.999997
 51
0.000000
  0
ARC
  8
LC-003-002-----0
 62
     1
  6
CONTINUOUS
 10
968.053772
 20
390.539276
 40
3.000000
 50
0.000000
 51
90.000003
  0
ARC
  8
LC-003-002-----0
 62
     1
  6
CONTINUOUS
 10
824.053772
 20
390.539276
 40
3.000000
 50
90.000003
 51
180.000009
  0
ARC
  8
LC-003-002-----0
 62
     1
  6
CONTINUOUS
 10
824.053772
 20
271.539276
 40
3.000000
 50
180.000009
 51
269.999997
  0
LINE
  8
LC-006-012-----0
 62
     2
  6
DASHED
 10
821.455688
 20
270.039276
 11
970.651855
 21
270.039276
  0
LINE
  8
LC-003-002-----0
 62
     1
  6
CONTINUOUS
 10
970.651855
 20
270.039276
 11
993.053772
 21
270.039276
  0
LINE
  8
LC-006-012-----0
 62
     2
  6
DASHED
 10
821.455688
 20
392.039276
 11
970.651855
 21
392.039276
  0
LINE
  8
LC-003-002-----0
 62
     1
  6
CONTINUOUS
 10
970.651855
 20
392.039276
 11
993.053772
 21
392.039276
  0
LINE
  8
LC-003-002-----0
 62
     1
  6
CONTINUOUS
 10
821.053772
 20
361.039276
 11
821.053772
 21
390.539276
  0
LINE
  8
LC-003-002-----0
 62
     1
  6
CONTINUOUS
 10
971.053772
 20
361.039276
 11
971.053772
 21
390.539276
  0
LINE
  8
LC-003-002-----0
 62
     1
  6
CONTINUOUS
 10
962.121399
 20
264.539276
 11
962.121399
 21
268.539276
  0
LINE
  8
LC-003-002-----0
 62
     1
  6
CONTINUOUS
 10
899.353760
 20
264.539276
 11
899.353760
 21
268.539276
  0
LINE
  8
LC-003-002-----0
 62
     1
  6
CONTINUOUS
 10
892.753784
 20
264.539276
 11
892.753784
 21
268.539276
  0
LINE
  8
LC-003-002-----0
 62
     1
  6
CONTINUOUS
 10
829.986145
 20
264.539276
 11
829.986145
 21
268.539276
  0
LINE
  8
LC-003-002-----0
 62
     1
  6
CONTINUOUS
 10
829.986145
 20
264.539276
 11
962.121399
 21
264.539276
  0
LINE
  8
LC-004-006-----0
 62
     2
  6
DASHDOT
 10
896.053772
 20
219.041870
 11
896.053772
 21
443.902100
  0
LINE
  8
LC-003-002-----0
 62
     1
  6
CONTINUOUS
 10
962.121399
 20
397.539276
 11
962.121399
 21
393.539276
  0
LINE
  8
LC-003-002-----0
 62
     1
  6
CONTINUOUS
 10
899.353760
 20
397.539276
 11
899.353760
 21
393.539276
  0
LINE
  8
LC-003-002-----0
 62
     1
  6
CONTINUOUS
 10
892.753784
 20
397.539276
 11
892.753784
 21
393.539276
  0
LINE
  8
LC-003-002-----0
 62
     1
  6
CONTINUOUS
 10
829.986145
 20
397.539276
 11
829.986145
 21
393.539276
  0
LINE
  8
LC-003-002-----0
 62
     1
  6
CONTINUOUS
 10
829.986145
 20
397.539276
 11
962.121399
 21
397.539276
  0
LINE
  8
LC-003-002-----0
 62
     1
  6
CONTINUOUS
 10
856.053772
 20
225.617935
 11
856.053772
 21
248.539291
  0
LINE
  8
LC-003-002-----0
 62
     1
  6
CONTINUOUS
 10
956.053772
 20
251.539291
 11
956.053772
 21
264.539276
  0
LINE
  8
LC-003-002-----0
 62
     1
  6
CONTINUOUS
 10
836.053772
 20
251.539291
 11
836.053772
 21
264.539276
  0
LINE
  8
LC-003-002-----0
 62
     1
  6
CONTINUOUS
 10
839.053772
 20
248.539291
 11
953.053772
 21
248.539291
  0
LINE
  8
LC-003-002-----0
 62
     1
  6
CONTINUOUS
 10
839.053772
 20
413.539276
 11
953.053772
 21
413.539276
  0
ARC
  8
LC-003-002-----0
 62
     1
  6
CONTINUOUS
 10
953.053772
 20
251.539291
 40
3.000000
 50
269.999997
 51
0.000000
  0
ARC
  8
LC-003-002-----0
 62
     1
  6
CONTINUOUS
 10
839.053772
 20
251.539291
 40
3.000000
 50
180.000009
 51
269.999997
  0
ARC
  8
LC-003-002-----0
 62
     1
  6
CONTINUOUS
 10
839.053772
 20
410.539276
 40
3.000000
 50
90.000003
 51
180.000009
  0
ARC
  8
LC-003-002-----0
 62
     1
  6
CONTINUOUS
 10
953.053772
 20
410.539276
 40
3.000000
 50
0.000000
 51
90.000003
  0
LINE
  8
LC-006-012-----0
 62
     2
  6
DASHED
 10
956.053772
 20
264.539276
 11
956.053772
 21
397.539276
  0
LINE
  8
LC-006-012-----0
 62
     2
  6
DASHED
 10
836.053772
 20
264.539276
 11
836.053772
 21
397.539276
  0
LINE
  8
LC-003-002-----0
 62
     1
  6
CONTINUOUS
 10
836.053772
 20
397.539276
 11
836.053772
 21
410.539276
  0
LINE
  8
LC-003-002-----0
 62
     1
  6
CONTINUOUS
 10
956.053772
 20
397.539276
 11
956.053772
 21
410.539276
  0
LINE
  8
LC-001-150-----0
 62
     2
  6
CONTINUOUS
 10
936.053772
 20
228.077774
 11
909.052368
 21
226.924042
  0
LINE
  8
LC-001-150-----0
 62
     2
  6
CONTINUOUS
 10
909.052368
 20
226.924042
 11
874.092285
 21
225.069412
  0
LINE
  8
LC-001-150-----0
 62
     2
  6
CONTINUOUS
 10
874.092285
 20
225.069412
 11
856.053772
 21
225.617935
  0
LINE
  8
LC-001-150-----0
 62
     2
  6
CONTINUOUS
 10
936.053772
 20
434.000793
 11
909.052368
 21
435.154541
  0
LINE
  8
LC-001-150-----0
 62
     2
  6
CONTINUOUS
 10
909.052368
 20
435.154541
 11
874.092285
 21
437.009155
  0
LINE
  8
LC-001-150-----0
 62
     2
  6
CONTINUOUS
 10
874.092285
 20
437.009155
 11
856.053772
 21
436.460632
  0
LINE
  8
LC-006-012-----0
 62
     2
  6
DASHED
 10
856.053772
 20
248.539291
 11
856.053772
 21
413.539276
  0
LINE
  8
LC-003-002-----0
 62
     1
  6
CONTINUOUS
 10
936.053772
 20
228.077774
 11
936.053772
 21
248.539291
  0
LINE
  8
LC-006-012-----0
 62
     2
  6
DASHED
 10
936.053772
 20
248.539291
 11
936.053772
 21
413.539276
  0
LINE
  8
LC-003-002-----0
 62
     1
  6
CONTINUOUS
 10
936.053772
 20
413.539276
 11
936.053772
 21
434.000793
  0
LINE
  8
LC-003-002-----0
 62
     1
  6
CONTINUOUS
 10
856.053772
 20
413.539276
 11
856.053772
 21
436.460632
  0
LINE
  8
LC-003-002-----0
 62
     1
  6
CONTINUOUS
 10
1180.988281
 20
491.028320
 11
1302.988281
 21
491.028320
  0
LINE
  8
LC-003-002-----0
 62
     1
  6
CONTINUOUS
 10
1302.988281
 20
491.028320
 11
1302.988281
 21
510.028320
  0
LINE
  8
LC-003-002-----0
 62
     1
  6
CONTINUOUS
 10
1214.988281
 20
661.028320
 11
1268.988281
 21
661.028320
  0
LINE
  8
LC-003-002-----0
 62
     1
  6
CONTINUOUS
 10
1183.988281
 20
513.028320
 11
1299.988281
 21
513.028320
  0
LINE
  8
LC-003-002-----0
 62
     1
  6
CONTINUOUS
 10
1180.988281
 20
491.028320
 11
1180.988281
 21
510.028320
  0
ARC
  8
LC-003-002-----0
 62
     1
  6
CONTINUOUS
 10
1183.988281
 20
510.028320
 40
3.000000
 50
90.000009
 51
179.999991
  0
ARC
  8
LC-003-002-----0
 62
     1
  6
CONTINUOUS
 10
1299.988281
 20
510.028320
 40
3.000000
 50
0.000000
 51
90.000009
  0
LINE
  8
LC-003-002-----0
 62
     1
  6
CONTINUOUS
 10
1274.988281
 20
646.028320
 11
1301.488281
 21
646.028320
  0
LINE
  8
LC-003-002-----0
 62
     1
  6
CONTINUOUS
 10
1304.488281
 20
499.028320
 11
1304.488281
 21
643.028320
  0
LINE
  8
LC-003-002-----0
 62
     1
  6
CONTINUOUS
 10
1179.488281
 20
499.028320
 11
1179.488281
 21
643.028320
  0
ARC
  8
LC-003-002-----0
 62
     1
  6
CONTINUOUS
 10
1182.488281
 20
499.028320
 40
3.000000
 50
179.999991
 51
239.999997
  0
ARC
  8
LC-003-002-----0
 62
     1
  6
CONTINUOUS
 10
1301.488281
 20
643.028320
 40
3.000000
 50
0.000000
 51
90.000009
  0
ARC
  8
LC-003-002-----0
 62
     1
  6
CONTINUOUS
 10
1182.488281
 20
643.028320
 40
3.000000
 50
90.000009
 51
179.999991
  0
LINE
  8
LC-003-002-----0
 62
     1
  6
CONTINUOUS
 10
1214.988281
 20
643.028320
 11
1268.988281
 21
643.028320
  0
ARC
  8
LC-003-002-----0
 62
     1
  6
CONTINUOUS
 10
1268.988281
 20
640.028320
 40
3.000000
 50
0.000000
 51
90.000009
  0
ARC
  8
LC-003-002-----0
 62
     1
  6
CONTINUOUS
 10
1301.488281
 20
499.028320
 40
3.000000
 50
299.999998
 51
0.000000
  0
LINE
  8
LC-003-002-----0
 62
     1
  6
CONTINUOUS
 10
1271.988281
 20
516.028320
 11
1271.988281
 21
658.028320
  0
LINE
  8
LC-003-002-----0
 62
     1
  6
CONTINUOUS
 10
1211.988281
 20
516.028320
 11
1211.988281
 21
658.028320
  0
ARC
  8
LC-003-002-----0
 62
     1
  6
CONTINUOUS
 10
1214.988281
 20
658.028320
 40
3.000000
 50
90.000009
 51
179.999991
  0
ARC
  8
LC-003-002-----0
 62
     1
  6
CONTINUOUS
 10
1268.988281
 20
658.028320
 40
3.000000
 50
0.000000
 51
90.000009
  0
ARC
  8
LC-003-002-----0
 62
     1
  6
CONTINUOUS
 10
1274.988281
 20
516.028320
 40
3.000000
 50
179.999991
 51
269.999997
  0
ARC
  8
LC-003-002-----0
 62
     1
  6
CONTINUOUS
 10
1208.988281
 20
516.028320
 40
3.000000
 50
269.999997
 51
0.000000
  0
ARC
  8
LC-003-002-----0
 62
     1
  6
CONTINUOUS
 10
1208.988281
 20
649.028320
 40
3.000000
 50
269.999997
 51
0.000000
  0
ARC
  8
LC-003-002-----0
 62
     1
  6
CONTINUOUS
 10
1274.988281
 20
649.028320
 40
3.000000
 50
179.999991
 51
269.999997
  0
LINE
  8
LC-003-002-----0
 62
     1
  6
CONTINUOUS
 10
1208.988281
 20
646.028320
 11
1182.488281
 21
646.028320
  0
ARC
  8
LC-003-002-----0
 62
     1
  6
CONTINUOUS
 10
1214.988281
 20
640.028320
 40
3.000000
 50
90.000009
 51
179.999991
  0
LINE
  8
LC-003-002-----0
 62
     1
  6
CONTINUOUS
 10
1304.488281
 20
501.578369
 11
1308.488281
 21
501.578369
  0
LINE
  8
LC-003-002-----0
 62
     1
  6
CONTINUOUS
 10
1304.488281
 20
645.181519
 11
1308.488281
 21
645.181519
  0
LINE
  8
LC-003-002-----0
 62
     1
  6
CONTINUOUS
 10
1304.488281
 20
628.639648
 11
1308.488281
 21
628.639648
  0
LINE
  8
LC-003-002-----0
 62
     1
  6
CONTINUOUS
 10
1308.488281
 20
501.578369
 11
1308.488281
 21
645.181519
  0
LINE
  8
LC-003-002-----0
 62
     1
  6
CONTINUOUS
 10
1304.488281
 20
643.028320
 11
1304.488281
 21
645.181519
  0
LINE
  8
LC-003-002-----0
 62
     1
  6
CONTINUOUS
 10
1179.488281
 20
501.578369
 11
1175.488281
 21
501.578369
  0
LINE
  8
LC-003-002-----0
 62
     1
  6
CONTINUOUS
 10
1179.488281
 20
645.181519
 11
1175.488281
 21
645.181519
  0
LINE
  8
LC-003-002-----0
 62
     1
  6
CONTINUOUS
 10
1179.488281
 20
628.639648
 11
1175.488281
 21
628.639648
  0
LINE
  8
LC-003-002-----0
 62
     1
  6
CONTINUOUS
 10
1175.488281
 20
501.578369
 11
1175.488281
 21
645.181519
  0
LINE
  8
LC-003-002-----0
 62
     1
  6
CONTINUOUS
 10
1179.488281
 20
643.028320
 11
1179.488281
 21
645.181519
  0
LINE
  8
LC-004-006-----0
 62
     2
  6
DASHDOT
 10
1286.988281
 20
484.635010
 11
1286.988281
 21
519.595337
  0
LINE
  8
LC-004-006-----0
 62
     2
  6
DASHDOT
 10
1196.988281
 20
484.635010
 11
1196.988281
 21
519.595337
  0
LINE
  8
LC-006-012-----0
 62
     2
  6
DASHED
 10
1190.488281
 20
491.028320
 11
1190.488281
 21
513.028320
  0
LINE
  8
LC-006-012-----0
 62
     2
  6
DASHED
 10
1203.488281
 20
491.028320
 11
1203.488281
 21
513.028320
  0
LINE
  8
LC-006-012-----0
 62
     2
  6
DASHED
 10
1293.488281
 20
491.028320
 11
1293.488281
 21
513.028320
  0
LINE
  8
LC-006-012-----0
 62
     2
  6
DASHED
 10
1280.488281
 20
491.028320
 11
1280.488281
 21
513.028320
  0
LINE
  8
LC-003-002-----0
 62
     1
  6
CONTINUOUS
 10
1162.488281
 20
631.028320
 11
1175.488281
 21
631.028320
  0
LINE
  8
LC-003-002-----0
 62
     1
  6
CONTINUOUS
 10
1162.488281
 20
511.028320
 11
1175.488281
 21
511.028320
  0
LINE
  8
LC-003-002-----0
 62
     1
  6
CONTINUOUS
 10
1324.488281
 20
514.028320
 11
1324.488281
 21
628.028320
  0
LINE
  8
LC-003-002-----0
 62
     1
  6
CONTINUOUS
 10
1159.488281
 20
514.028320
 11
1159.488281
 21
628.028320
  0
ARC
  8
LC-003-002-----0
 62
     1
  6
CONTINUOUS
 10
1162.488281
 20
628.028320
 40
3.000000
 50
90.000009
 51
179.999991
  0
ARC
  8
LC-003-002-----0
 62
     1
  6
CONTINUOUS
 10
1162.488281
 20
514.028320
 40
3.000000
 50
179.999991
 51
269.999997
  0
ARC
  8
LC-003-002-----0
 62
     1
  6
CONTINUOUS
 10
1321.488281
 20
628.028320
 40
3.000000
 50
0.000000
 51
90.000009
  0
ARC
  8
LC-003-002-----0
 62
     1
  6
CONTINUOUS
 10
1321.488281
 20
514.028320
 40
3.000000
 50
269.999997
 51
0.000000
  0
LINE
  8
LC-003-002-----0
 62
     1
  6
CONTINUOUS
 10
1308.488281
 20
631.028320
 11
1321.488281
 21
631.028320
  0
LINE
  8
LC-003-002-----0
 62
     1
  6
CONTINUOUS
 10
1308.488281
 20
511.028320
 11
1321.488281
 21
511.028320
  0
LINE
  8
LC-006-012-----0
 62
     2
  6
DASHED
 10
1175.488281
 20
511.028320
 11
1308.488281
 21
511.028320
  0
LINE
  8
LC-006-012-----0
 62
     2
  6
DASHED
 10
1175.488281
 20
631.028320
 11
1308.488281
 21
631.028320
  0
LINE
  8
LC-004-006-----0
 62
     2
  6
DASHDOT
 10
1126.925171
 20
571.028320
 11
1361.531006
 21
571.028320
  0
LINE
  8
LC-003-002-----0
 62
     1
  6
CONTINUOUS
 10
1135.049561
 20
611.028320
 11
1159.488281
 21
611.028320
  0
LINE
  8
LC-003-002-----0
 62
     1
  6
CONTINUOUS
 10
1133.289429
 20
531.028320
 11
1159.488281
 21
531.028320
  0
LINE
  8
LC-001-150-----0
 62
     2
  6
CONTINUOUS
 10
1350.893799
 20
611.028320
 11
1349.779663
 21
592.726440
  0
LINE
  8
LC-001-150-----0
 62
     2
  6
CONTINUOUS
 10
1349.779663
 20
592.726440
 11
1353.233154
 21
562.574829
  0
LINE
  8
LC-001-150-----0
 62
     2
  6
CONTINUOUS
 10
1353.233154
 20
562.574829
 11
1351.467041
 21
531.028320
  0
LINE
  8
LC-001-150-----0
 62
     2
  6
CONTINUOUS
 10
1135.049561
 20
611.028320
 11
1131.624756
 21
588.672607
  0
LINE
  8
LC-001-150-----0
 62
     2
  6
CONTINUOUS
 10
1131.624756
 20
588.672607
 11
1133.706421
 21
544.536621
  0
LINE
  8
LC-001-150-----0
 62
     2
  6
CONTINUOUS
 10
1133.706421
 20
544.536621
 11
1133.289429
 21
531.028320
  0
LINE
  8
LC-003-002-----0
 62
     1
  6
CONTINUOUS
 10
1324.488281
 20
611.028320
 11
1350.893799
 21
611.028320
  0
LINE
  8
LC-003-002-----0
 62
     1
  6
CONTINUOUS
 10
1324.488281
 20
531.028320
 11
1351.467041
 21
531.028320
  0
LINE
  8
LC-006-012-----0
 62
     2
  6
DASHED
 10
1159.488281
 20
531.028320
 11
1324.488281
 21
531.028320
  0
LINE
  8
LC-006-012-----0
 62
     2
  6
DASHED
 10
1159.488281
 20
611.028320
 11
1324.488281
 21
611.028320
  0
ENDSEC
  0
EOF
