  0
SECTION
  2
HEADER
  9
$LIMMIN
 10
397.716919
 20
-92.950653
  9
$LIMMAX
 10
758.231628
 20
272.465454
  9
$EXTMIN
 10
397.716919
 20
-92.950653
  9
$EXTMAX
 10
758.231628
 20
272.465454
  0
ENDSEC
  0
SECTION
  2
TABLES
  0
TABLE
  2
LTYPE
 70
     3
  0
LTYPE
  2
CONTINUOUS
 70
    64
  3
Ausgezogene Linie
 72
    65
 73
     0
 40
0.0
  0
LTYPE
  2
DASHED
 70
    64
  3
__ __ __ __ __ __ __ __ __ __ __ __ __ __ __
 72
    65
 73
     2
 40
0.75
 49
0.5
 49
-0.25
  0
LTYPE
  2
DASHDOT
 70
    64
  3
__ . __ . __ . __ . __ . __ . __ . __ . __ . __
 72
    65
 73
     4
 40
1.0
 49
0.5
 49
-0.25
 49
0.0
 49
-0.25
  0
ENDTAB
  0
TABLE
  2
LAYER
 70
     4
  0
LAYER
  2
LC-003-002-----0
 70
    64
 62
     7
  6
CONTINUOUS
  0
LAYER
  2
LC-004-006-----0
 70
    64
 62
     7
  6
CONTINUOUS
  0
LAYER
  2
LC-006-012-----0
 70
    64
 62
     7
  6
CONTINUOUS
  0
LAYER
  2
LC-001-150-----0
 70
    64
 62
     7
  6
CONTINUOUS
  0
ENDTAB
  0
TABLE
  2
STYLE
 70
     1
  0
STYLE
  2
TXT8
 70
    64
 40
0.0
 41
1.0
 50
0.0
 71
     0
 42
3.500000
  3
TXT8
  4

  0
ENDTAB
  0
ENDSEC
  0
SECTION
  2
BLOCKS
  0
ENDSEC
  0
SECTION
  2
ENTITIES
  0
LINE
  8
LC-003-002-----0
 62
     1
  6
CONTINUOUS
 10
515.813782
 20
76.930611
 11
515.813782
 21
57.462482
  0
LINE
  8
LC-001-150-----0
 62
     2
  6
CONTINUOUS
 10
455.813782
 20
75.718140
 11
471.890015
 21
73.892052
  0
LINE
  8
LC-004-006-----0
 62
     2
  6
DASHDOT
 10
485.813782
 20
83.763702
 11
485.813782
 21
-92.950653
  0
LINE
  8
LC-001-150-----0
 62
     2
  6
CONTINUOUS
 10
471.890015
 20
73.892052
 11
502.313995
 21
79.355927
  0
LINE
  8
LC-001-150-----0
 62
     2
  6
CONTINUOUS
 10
502.313995
 20
79.355927
 11
515.813782
 21
76.930611
  0
LINE
  8
LC-004-006-----0
 62
     2
  6
DASHDOT
 10
432.141357
 20
265.179718
 11
432.141357
 21
207.897415
  0
LINE
  8
LC-001-150-----0
 62
     2
  6
CONTINUOUS
 10
455.813782
 20
-86.156960
 11
472.366821
 21
-88.902245
  0
LINE
  8
LC-001-150-----0
 62
     2
  6
CONTINUOUS
 10
472.366821
 20
-88.902245
 11
504.679688
 21
-85.374557
  0
LINE
  8
LC-006-012-----0
 62
     2
  6
DASHED
 10
452.272766
 20
232.234741
 11
448.281403
 21
232.234741
  0
LINE
  8
LC-001-150-----0
 62
     2
  6
CONTINUOUS
 10
504.679688
 20
-85.374557
 11
515.813782
 21
-85.929504
  0
LINE
  8
LC-003-002-----0
 62
     1
  6
CONTINUOUS
 10
455.813782
 20
-67.537514
 11
455.813782
 21
-86.156960
  0
LINE
  8
LC-003-002-----0
 62
     1
  6
CONTINUOUS
 10
515.813782
 20
-67.537514
 11
515.813782
 21
-85.929504
  0
LINE
  8
LC-003-002-----0
 62
     1
  6
CONTINUOUS
 10
455.813782
 20
75.718140
 11
455.813782
 21
57.462482
  0
LINE
  8
LC-006-012-----0
 62
     2
  6
DASHED
 10
455.813782
 20
57.462482
 11
455.813782
 21
-67.537514
  0
LINE
  8
LC-006-012-----0
 62
     2
  6
DASHED
 10
515.813782
 20
57.462482
 11
515.813782
 21
-67.537514
  0
LINE
  8
LC-003-002-----0
 62
     1
  6
CONTINUOUS
 10
405.813782
 20
154.734741
 11
405.813782
 21
142.234741
  0
LINE
  8
LC-003-002-----0
 62
     1
  6
CONTINUOUS
 10
405.813782
 20
142.234741
 11
565.813782
 21
142.234741
  0
LINE
  8
LC-003-002-----0
 62
     1
  6
CONTINUOUS
 10
527.455078
 20
157.234741
 11
563.313782
 21
157.234741
  0
LINE
  8
LC-004-006-----0
 62
     2
  6
DASHDOT
 10
551.813782
 20
161.765533
 11
551.813782
 21
135.743820
  0
LINE
  8
LC-004-006-----0
 62
     2
  6
DASHDOT
 10
421.697632
 20
202.234741
 11
546.939758
 21
202.234741
  0
LINE
  8
LC-003-002-----0
 62
     1
  6
CONTINUOUS
 10
565.813782
 20
154.734741
 11
565.813782
 21
142.234741
  0
LINE
  8
LC-004-006-----0
 62
     2
  6
DASHDOT
 10
485.813782
 20
272.465454
 11
485.813782
 21
135.743820
  0
ARC
  8
LC-003-002-----0
 62
     1
  6
CONTINUOUS
 10
408.313782
 20
154.734741
 40
2.500000
 50
90.000003
 51
180.000009
  0
ARC
  8
LC-003-002-----0
 62
     1
  6
CONTINUOUS
 10
563.313782
 20
154.734741
 40
2.500000
 50
0.000000
 51
90.000003
  0
CIRCLE
  8
LC-003-002-----0
 62
     1
  6
CONTINUOUS
 10
485.813782
 20
202.234741
 40
30.000000
  0
CIRCLE
  8
LC-003-002-----0
 62
     1
  6
CONTINUOUS
 10
485.813782
 20
202.234741
 40
45.000000
  0
CIRCLE
  8
LC-003-002-----0
 62
     1
  6
CONTINUOUS
 10
485.813782
 20
202.234741
 40
40.000000
  0
LINE
  8
LC-003-002-----0
 62
     1
  6
CONTINUOUS
 10
405.813782
 20
38.462482
 11
405.813782
 21
-48.537518
  0
LINE
  8
LC-003-002-----0
 62
     1
  6
CONTINUOUS
 10
565.727966
 20
155.384186
 11
548.582275
 21
219.120163
  0
LINE
  8
LC-003-002-----0
 62
     1
  6
CONTINUOUS
 10
405.823303
 20
154.952637
 11
412.584595
 21
232.234741
  0
LINE
  8
LC-003-002-----0
 62
     1
  6
CONTINUOUS
 10
416.887665
 20
255.234741
 11
447.395050
 21
255.234741
  0
ARC
  8
LC-003-002-----0
 62
     1
  6
CONTINUOUS
 10
416.887665
 20
252.734741
 40
2.500000
 50
90.000003
 51
175.000006
  0
ARC
  8
LC-003-002-----0
 62
     1
  6
CONTINUOUS
 10
447.395050
 20
257.734741
 40
2.500000
 50
269.999997
 51
304.692130
  0
ARC
  8
LC-003-002-----0
 62
     1
  6
CONTINUOUS
 10
485.813782
 20
202.234741
 40
65.000000
 50
15.056754
 51
124.692125
  0
LINE
  8
LC-006-012-----0
 62
     2
  6
DASHED
 10
557.313782
 20
157.234741
 11
557.313782
 21
142.234741
  0
LINE
  8
LC-006-012-----0
 62
     2
  6
DASHED
 10
546.313782
 20
157.234741
 11
546.313782
 21
142.234741
  0
LINE
  8
LC-004-006-----0
 62
     2
  6
DASHDOT
 10
419.813782
 20
161.765533
 11
419.813782
 21
135.743820
  0
LINE
  8
LC-006-012-----0
 62
     2
  6
DASHED
 10
414.313782
 20
157.234741
 11
414.313782
 21
142.234741
  0
LINE
  8
LC-006-012-----0
 62
     2
  6
DASHED
 10
425.313782
 20
157.234741
 11
425.313782
 21
142.234741
  0
ARC
  8
LC-003-002-----0
 62
     1
  6
CONTINUOUS
 10
485.813782
 20
202.234741
 40
57.000000
 50
148.243136
 51
145.237539
  0
ARC
  8
LC-003-002-----0
 62
     1
  6
CONTINUOUS
 10
444.172455
 20
159.734741
 40
2.500000
 50
269.999997
 51
45.584689
  0
ARC
  8
LC-003-002-----0
 62
     1
  6
CONTINUOUS
 10
527.455078
 20
159.734741
 40
2.500000
 50
134.415309
 51
269.999997
  0
LINE
  8
LC-003-002-----0
 62
     1
  6
CONTINUOUS
 10
408.313782
 20
157.234741
 11
444.172455
 21
157.234741
  0
LINE
  8
LC-003-002-----0
 62
     1
  6
CONTINUOUS
 10
624.921204
 20
142.234741
 11
716.921204
 21
142.234741
  0
LINE
  8
LC-003-002-----0
 62
     1
  6
CONTINUOUS
 10
716.921204
 20
142.234741
 11
716.921204
 21
154.734741
  0
LINE
  8
LC-003-002-----0
 62
     1
  6
CONTINUOUS
 10
627.421204
 20
157.234741
 11
714.421204
 21
157.234741
  0
LINE
  8
LC-003-002-----0
 62
     1
  6
CONTINUOUS
 10
624.921204
 20
142.234741
 11
624.921204
 21
154.734741
  0
LINE
  8
LC-004-006-----0
 62
     2
  6
DASHDOT
 10
670.921204
 20
135.743820
 11
670.921204
 21
272.465454
  0
ARC
  8
LC-003-002-----0
 62
     1
  6
CONTINUOUS
 10
627.421204
 20
154.734741
 40
2.500000
 50
90.000003
 51
180.000009
  0
ARC
  8
LC-003-002-----0
 62
     1
  6
CONTINUOUS
 10
714.421204
 20
154.734741
 40
2.500000
 50
0.000000
 51
90.000003
  0
LINE
  8
LC-003-002-----0
 62
     1
  6
CONTINUOUS
 10
625.921204
 20
259.234741
 11
648.421204
 21
259.234741
  0
LINE
  8
LC-003-002-----0
 62
     1
  6
CONTINUOUS
 10
718.421204
 20
147.734741
 11
718.421204
 21
256.734741
  0
LINE
  8
LC-003-002-----0
 62
     1
  6
CONTINUOUS
 10
623.421204
 20
147.734741
 11
623.421204
 21
256.734741
  0
LINE
  8
LC-003-002-----0
 62
     1
  6
CONTINUOUS
 10
408.313782
 20
-51.037518
 11
429.022491
 21
-51.037518
  0
ARC
  8
LC-003-002-----0
 62
     1
  6
CONTINUOUS
 10
625.921204
 20
256.734741
 40
2.500000
 50
90.000003
 51
180.000009
  0
ARC
  8
LC-003-002-----0
 62
     1
  6
CONTINUOUS
 10
715.921204
 20
256.734741
 40
2.500000
 50
0.000000
 51
90.000003
  0
LINE
  8
LC-003-002-----0
 62
     1
  6
CONTINUOUS
 10
565.813782
 20
38.462482
 11
565.813782
 21
-48.537518
  0
LINE
  8
LC-003-002-----0
 62
     1
  6
CONTINUOUS
 10
408.313782
 20
40.962482
 11
429.022491
 21
40.962482
  0
ARC
  8
LC-003-002-----0
 62
     1
  6
CONTINUOUS
 10
715.921204
 20
147.734741
 40
2.500000
 50
293.578179
 51
0.000000
  0
ARC
  8
LC-003-002-----0
 62
     1
  6
CONTINUOUS
 10
625.921204
 20
147.734741
 40
2.500000
 50
180.000009
 51
246.421822
  0
LINE
  8
LC-003-002-----0
 62
     1
  6
CONTINUOUS
 10
653.421204
 20
267.234741
 11
688.421204
 21
267.234741
  0
LINE
  8
LC-003-002-----0
 62
     1
  6
CONTINUOUS
 10
650.921204
 20
159.734741
 11
650.921204
 21
232.234741
  0
LINE
  8
LC-003-002-----0
 62
     1
  6
CONTINUOUS
 10
690.921204
 20
159.734741
 11
690.921204
 21
232.234741
  0
ARC
  8
LC-003-002-----0
 62
     1
  6
CONTINUOUS
 10
653.421204
 20
264.734741
 40
2.500000
 50
90.000003
 51
180.000009
  0
ARC
  8
LC-003-002-----0
 62
     1
  6
CONTINUOUS
 10
688.421204
 20
264.734741
 40
2.500000
 50
0.000000
 51
90.000003
  0
ARC
  8
LC-003-002-----0
 62
     1
  6
CONTINUOUS
 10
693.421204
 20
261.734741
 40
2.500000
 50
180.000009
 51
269.999997
  0
ARC
  8
LC-003-002-----0
 62
     1
  6
CONTINUOUS
 10
648.421204
 20
261.734741
 40
2.500000
 50
269.999997
 51
0.000000
  0
ARC
  8
LC-003-002-----0
 62
     1
  6
CONTINUOUS
 10
485.813782
 20
199.884750
 40
49.549999
 50
112.672870
 51
67.327128
  0
LINE
  8
LC-003-002-----0
 62
     1
  6
CONTINUOUS
 10
693.421204
 20
259.234741
 11
715.921204
 21
259.234741
  0
ARC
  8
LC-003-002-----0
 62
     1
  6
CONTINUOUS
 10
693.421204
 20
159.734741
 40
2.500000
 50
180.000009
 51
269.999997
  0
ARC
  8
LC-003-002-----0
 62
     1
  6
CONTINUOUS
 10
648.421204
 20
159.734741
 40
2.500000
 50
269.999997
 51
0.000000
  0
ARC
  8
LC-003-002-----0
 62
     1
  6
CONTINUOUS
 10
715.921204
 20
147.734741
 40
2.500000
 50
293.578179
 51
0.000000
  0
LINE
  8
LC-003-002-----0
 62
     1
  6
CONTINUOUS
 10
620.271179
 20
150.334747
 11
620.271179
 21
258.069733
  0
LINE
  8
LC-003-002-----0
 62
     1
  6
CONTINUOUS
 10
620.271179
 20
150.334747
 11
623.421204
 21
150.334747
  0
LINE
  8
LC-003-002-----0
 62
     1
  6
CONTINUOUS
 10
620.271179
 20
258.069733
 11
623.421204
 21
258.069733
  0
LINE
  8
LC-003-002-----0
 62
     1
  6
CONTINUOUS
 10
620.271179
 20
245.605560
 11
623.421204
 21
245.605560
  0
LINE
  8
LC-003-002-----0
 62
     1
  6
CONTINUOUS
 10
466.713776
 20
245.605560
 11
468.798889
 21
252.011520
  0
LINE
  8
LC-003-002-----0
 62
     1
  6
CONTINUOUS
 10
474.097778
 20
256.551453
 11
483.463776
 21
258.069733
  0
LINE
  8
LC-003-002-----0
 62
     1
  6
CONTINUOUS
 10
483.463776
 20
247.173340
 11
483.463776
 21
258.069733
  0
LINE
  8
LC-003-002-----0
 62
     1
  6
CONTINUOUS
 10
488.163788
 20
247.173340
 11
488.163788
 21
258.069733
  0
LINE
  8
LC-003-002-----0
 62
     1
  6
CONTINUOUS
 10
488.163788
 20
258.069733
 11
497.529785
 21
256.551453
  0
LINE
  8
LC-003-002-----0
 62
     1
  6
CONTINUOUS
 10
504.913788
 20
245.605560
 11
502.828644
 21
252.011520
  0
CIRCLE
  8
LC-003-002-----0
 62
     1
  6
CONTINUOUS
 10
493.163788
 20
251.369720
 40
2.500000
  0
LINE
  8
LC-003-002-----0
 62
     1
  6
CONTINUOUS
 10
623.421204
 20
256.734741
 11
623.421204
 21
258.069733
  0
CIRCLE
  8
LC-003-002-----0
 62
     1
  6
CONTINUOUS
 10
478.463776
 20
251.369720
 40
2.500000
  0
ARC
  8
LC-003-002-----0
 62
     1
  6
CONTINUOUS
 10
475.169891
 20
249.937775
 40
6.700000
 50
99.207883
 51
161.970081
  0
ARC
  8
LC-003-002-----0
 62
     1
  6
CONTINUOUS
 10
496.457672
 20
249.937775
 40
6.700000
 50
18.029918
 51
80.792115
  0
LINE
  8
LC-003-002-----0
 62
     1
  6
CONTINUOUS
 10
588.286438
 20
232.234741
 11
608.421204
 21
232.234741
  0
LINE
  8
LC-003-002-----0
 62
     1
  6
CONTINUOUS
 10
721.571167
 20
150.334747
 11
721.571167
 21
258.069733
  0
LINE
  8
LC-003-002-----0
 62
     1
  6
CONTINUOUS
 10
721.571167
 20
150.334747
 11
718.421204
 21
150.334747
  0
LINE
  8
LC-003-002-----0
 62
     1
  6
CONTINUOUS
 10
721.571167
 20
258.069733
 11
718.421204
 21
258.069733
  0
LINE
  8
LC-003-002-----0
 62
     1
  6
CONTINUOUS
 10
721.571167
 20
245.605560
 11
718.421204
 21
245.605560
  0
LINE
  8
LC-003-002-----0
 62
     1
  6
CONTINUOUS
 10
718.421204
 20
256.734741
 11
718.421204
 21
258.069733
  0
LINE
  8
LC-003-002-----0
 62
     1
  6
CONTINUOUS
 10
587.537659
 20
172.234741
 11
608.421204
 21
172.234741
  0
LINE
  8
LC-004-006-----0
 62
     2
  6
DASHDOT
 10
638.421204
 20
161.765533
 11
638.421204
 21
135.743820
  0
LINE
  8
LC-004-006-----0
 62
     2
  6
DASHDOT
 10
703.421204
 20
161.765533
 11
703.421204
 21
135.743820
  0
LINE
  8
LC-006-012-----0
 62
     2
  6
DASHED
 10
708.921204
 20
157.234741
 11
708.921204
 21
142.234741
  0
LINE
  8
LC-006-012-----0
 62
     2
  6
DASHED
 10
697.921204
 20
157.234741
 11
697.921204
 21
142.234741
  0
LINE
  8
LC-003-002-----0
 62
     1
  6
CONTINUOUS
 10
610.921204
 20
247.234741
 11
620.271179
 21
247.234741
  0
LINE
  8
LC-006-012-----0
 62
     2
  6
DASHED
 10
632.921204
 20
157.234741
 11
632.921204
 21
142.234741
  0
LINE
  8
LC-006-012-----0
 62
     2
  6
DASHED
 10
643.921204
 20
157.234741
 11
643.921204
 21
142.234741
  0
LINE
  8
LC-003-002-----0
 62
     1
  6
CONTINUOUS
 10
610.921204
 20
157.234741
 11
620.271179
 21
157.234741
  0
LINE
  8
LC-003-002-----0
 62
     1
  6
CONTINUOUS
 10
608.421204
 20
159.734741
 11
608.421204
 21
244.734741
  0
ARC
  8
LC-003-002-----0
 62
     1
  6
CONTINUOUS
 10
610.921204
 20
244.734741
 40
2.500000
 50
90.000003
 51
180.000009
  0
ARC
  8
LC-003-002-----0
 62
     1
  6
CONTINUOUS
 10
610.921204
 20
159.734741
 40
2.500000
 50
180.000009
 51
269.999997
  0
LINE
  8
LC-003-002-----0
 62
     1
  6
CONTINUOUS
 10
733.421204
 20
159.734741
 11
733.421204
 21
244.734741
  0
ARC
  8
LC-003-002-----0
 62
     1
  6
CONTINUOUS
 10
730.921204
 20
244.734741
 40
2.500000
 50
0.000000
 51
90.000003
  0
ARC
  8
LC-003-002-----0
 62
     1
  6
CONTINUOUS
 10
730.921204
 20
159.734741
 40
2.500000
 50
269.999997
 51
0.000000
  0
LINE
  8
LC-004-006-----0
 62
     2
  6
DASHDOT
 10
581.979858
 20
202.234741
 11
758.231628
 21
202.234741
  0
LINE
  8
LC-006-012-----0
 62
     2
  6
DASHED
 10
620.271179
 20
247.234741
 11
721.571167
 21
247.234741
  0
LINE
  8
LC-006-012-----0
 62
     2
  6
DASHED
 10
620.271179
 20
157.234741
 11
721.571167
 21
157.234741
  0
LINE
  8
LC-003-002-----0
 62
     1
  6
CONTINUOUS
 10
721.571167
 20
157.234741
 11
730.921204
 21
157.234741
  0
LINE
  8
LC-003-002-----0
 62
     1
  6
CONTINUOUS
 10
721.571167
 20
247.234741
 11
730.921204
 21
247.234741
  0
LINE
  8
LC-001-150-----0
 62
     2
  6
CONTINUOUS
 10
751.105225
 20
172.234741
 11
752.920837
 21
188.744965
  0
LINE
  8
LC-001-150-----0
 62
     2
  6
CONTINUOUS
 10
752.920837
 20
188.744965
 11
751.855957
 21
215.498322
  0
LINE
  8
LC-001-150-----0
 62
     2
  6
CONTINUOUS
 10
751.855957
 20
215.498322
 11
752.094299
 21
232.234741
  0
LINE
  8
LC-001-150-----0
 62
     2
  6
CONTINUOUS
 10
587.537659
 20
172.234741
 11
588.887939
 21
192.413986
  0
LINE
  8
LC-001-150-----0
 62
     2
  6
CONTINUOUS
 10
588.887939
 20
192.413986
 11
587.290649
 21
216.945190
  0
LINE
  8
LC-001-150-----0
 62
     2
  6
CONTINUOUS
 10
587.290649
 20
216.945190
 11
588.286438
 21
232.234741
  0
LINE
  8
LC-003-002-----0
 62
     1
  6
CONTINUOUS
 10
733.421204
 20
172.234741
 11
751.105225
 21
172.234741
  0
LINE
  8
LC-003-002-----0
 62
     1
  6
CONTINUOUS
 10
733.421204
 20
232.234741
 11
752.094299
 21
232.234741
  0
LINE
  8
LC-006-012-----0
 62
     2
  6
DASHED
 10
608.421204
 20
232.234741
 11
733.421204
 21
232.234741
  0
LINE
  8
LC-006-012-----0
 62
     2
  6
DASHED
 10
608.421204
 20
172.234741
 11
733.421204
 21
172.234741
  0
ARC
  8
LC-003-002-----0
 62
     1
  6
CONTINUOUS
 10
408.313782
 20
38.462482
 40
2.500000
 50
90.000003
 51
180.000009
  0
ARC
  8
LC-003-002-----0
 62
     1
  6
CONTINUOUS
 10
563.313782
 20
38.462482
 40
2.500000
 50
0.000000
 51
90.000003
  0
ARC
  8
LC-003-002-----0
 62
     1
  6
CONTINUOUS
 10
563.313782
 20
-48.537518
 40
2.500000
 50
269.999997
 51
0.000000
  0
ARC
  8
LC-003-002-----0
 62
     1
  6
CONTINUOUS
 10
408.313782
 20
-48.537518
 40
2.500000
 50
180.000009
 51
269.999997
  0
LINE
  8
LC-004-006-----0
 62
     2
  6
DASHDOT
 10
397.716919
 20
-5.037516
 11
575.491760
 21
-5.037516
  0
LINE
  8
LC-004-006-----0
 62
     2
  6
DASHDOT
 10
419.813782
 20
37.072880
 11
419.813782
 21
16.667255
  0
LINE
  8
LC-004-006-----0
 62
     2
  6
DASHDOT
 10
410.570160
 20
27.462484
 11
429.358582
 21
27.462484
  0
CIRCLE
  8
LC-003-002-----0
 62
     1
  6
CONTINUOUS
 10
419.813782
 20
27.462484
 40
5.500000
  0
LINE
  8
LC-004-006-----0
 62
     2
  6
DASHDOT
 10
419.813782
 20
-47.147911
 11
419.813782
 21
-26.742285
  0
LINE
  8
LC-004-006-----0
 62
     2
  6
DASHDOT
 10
410.570160
 20
-37.537518
 11
429.358582
 21
-37.537518
  0
CIRCLE
  8
LC-003-002-----0
 62
     1
  6
CONTINUOUS
 10
419.813782
 20
-37.537518
 40
5.500000
  0
LINE
  8
LC-004-006-----0
 62
     2
  6
DASHDOT
 10
551.813782
 20
37.072880
 11
551.813782
 21
16.667255
  0
LINE
  8
LC-004-006-----0
 62
     2
  6
DASHDOT
 10
561.057373
 20
27.462484
 11
542.268982
 21
27.462484
  0
CIRCLE
  8
LC-003-002-----0
 62
     1
  6
CONTINUOUS
 10
551.813782
 20
27.462484
 40
5.500000
  0
LINE
  8
LC-004-006-----0
 62
     2
  6
DASHDOT
 10
551.813782
 20
-47.147911
 11
551.813782
 21
-26.742285
  0
LINE
  8
LC-004-006-----0
 62
     2
  6
DASHDOT
 10
561.057373
 20
-37.537518
 11
542.268982
 21
-37.537518
  0
CIRCLE
  8
LC-003-002-----0
 62
     1
  6
CONTINUOUS
 10
551.813782
 20
-37.537518
 40
5.500000
  0
LINE
  8
LC-003-002-----0
 62
     1
  6
CONTINUOUS
 10
405.813782
 20
14.962484
 11
565.813782
 21
14.962484
  0
LINE
  8
LC-003-002-----0
 62
     1
  6
CONTINUOUS
 10
405.813782
 20
-25.037516
 11
565.813782
 21
-25.037516
  0
LINE
  8
LC-003-002-----0
 62
     1
  6
CONTINUOUS
 10
414.397186
 20
12.462484
 11
414.397186
 21
-22.537516
  0
ARC
  8
LC-003-002-----0
 62
     1
  6
CONTINUOUS
 10
416.897186
 20
12.462484
 40
2.500000
 50
90.000003
 51
180.000009
  0
ARC
  8
LC-003-002-----0
 62
     1
  6
CONTINUOUS
 10
416.897186
 20
-22.537516
 40
2.500000
 50
180.000009
 51
269.999997
  0
LINE
  8
LC-003-002-----0
 62
     1
  6
CONTINUOUS
 10
428.813782
 20
39.962482
 11
428.813782
 21
14.962486
  0
LINE
  8
LC-003-002-----0
 62
     1
  6
CONTINUOUS
 10
542.813782
 20
39.962482
 11
542.813782
 21
14.962486
  0
LINE
  8
LC-003-002-----0
 62
     1
  6
CONTINUOUS
 10
431.313782
 20
42.462482
 11
540.313782
 21
42.462482
  0
LINE
  8
LC-003-002-----0
 62
     1
  6
CONTINUOUS
 10
431.313782
 20
-52.537518
 11
540.313782
 21
-52.537518
  0
ARC
  8
LC-003-002-----0
 62
     1
  6
CONTINUOUS
 10
431.313782
 20
39.962482
 40
2.500000
 50
90.000003
 51
180.000009
  0
ARC
  8
LC-003-002-----0
 62
     1
  6
CONTINUOUS
 10
540.313782
 20
39.962482
 40
2.500000
 50
0.000000
 51
90.000003
  0
ARC
  8
LC-003-002-----0
 62
     1
  6
CONTINUOUS
 10
540.313782
 20
-50.037518
 40
2.500000
 50
269.999997
 51
0.000000
  0
ARC
  8
LC-003-002-----0
 62
     1
  6
CONTINUOUS
 10
431.313782
 20
-50.037518
 40
2.500000
 50
180.000009
 51
269.999997
  0
LINE
  8
LC-006-012-----0
 62
     2
  6
DASHED
 10
429.022491
 20
-51.037518
 11
542.605042
 21
-51.037518
  0
LINE
  8
LC-003-002-----0
 62
     1
  6
CONTINUOUS
 10
542.605042
 20
-51.037518
 11
563.313782
 21
-51.037518
  0
LINE
  8
LC-006-012-----0
 62
     2
  6
DASHED
 10
429.022491
 20
40.962482
 11
542.605042
 21
40.962482
  0
LINE
  8
LC-003-002-----0
 62
     1
  6
CONTINUOUS
 10
542.605042
 20
40.962482
 11
563.313782
 21
40.962482
  0
LINE
  8
LC-003-002-----0
 62
     1
  6
CONTINUOUS
 10
428.813782
 20
-25.037516
 11
428.813782
 21
-50.037518
  0
LINE
  8
LC-003-002-----0
 62
     1
  6
CONTINUOUS
 10
542.813782
 20
-25.037516
 11
542.813782
 21
-50.037518
  0
LINE
  8
LC-003-002-----0
 62
     1
  6
CONTINUOUS
 10
436.319550
 20
45.612484
 11
436.319550
 21
42.462482
  0
LINE
  8
LC-003-002-----0
 62
     1
  6
CONTINUOUS
 10
535.308044
 20
45.612484
 11
535.308044
 21
42.462482
  0
LINE
  8
LC-003-002-----0
 62
     1
  6
CONTINUOUS
 10
483.463776
 20
45.612484
 11
483.463776
 21
42.462482
  0
LINE
  8
LC-003-002-----0
 62
     1
  6
CONTINUOUS
 10
488.163788
 20
45.612484
 11
488.163788
 21
42.462482
  0
LINE
  8
LC-003-002-----0
 62
     1
  6
CONTINUOUS
 10
436.319550
 20
45.612484
 11
535.308044
 21
45.612484
  0
LINE
  8
LC-003-002-----0
 62
     1
  6
CONTINUOUS
 10
436.319550
 20
-55.687515
 11
436.319550
 21
-52.537518
  0
LINE
  8
LC-003-002-----0
 62
     1
  6
CONTINUOUS
 10
535.308044
 20
-55.687515
 11
535.308044
 21
-52.537518
  0
LINE
  8
LC-003-002-----0
 62
     1
  6
CONTINUOUS
 10
483.463776
 20
-55.687515
 11
483.463776
 21
-52.537518
  0
LINE
  8
LC-003-002-----0
 62
     1
  6
CONTINUOUS
 10
488.163788
 20
-55.687515
 11
488.163788
 21
-52.537518
  0
LINE
  8
LC-003-002-----0
 62
     1
  6
CONTINUOUS
 10
436.319550
 20
-55.687515
 11
535.308044
 21
-55.687515
  0
LINE
  8
LC-003-002-----0
 62
     1
  6
CONTINUOUS
 10
440.813782
 20
54.962482
 11
440.813782
 21
45.612484
  0
LINE
  8
LC-003-002-----0
 62
     1
  6
CONTINUOUS
 10
530.813782
 20
54.962482
 11
530.813782
 21
45.612484
  0
LINE
  8
LC-003-002-----0
 62
     1
  6
CONTINUOUS
 10
443.313782
 20
57.462482
 11
528.313782
 21
57.462482
  0
LINE
  8
LC-003-002-----0
 62
     1
  6
CONTINUOUS
 10
443.313782
 20
-67.537514
 11
528.313782
 21
-67.537514
  0
ARC
  8
LC-003-002-----0
 62
     1
  6
CONTINUOUS
 10
443.313782
 20
54.962482
 40
2.500000
 50
90.000003
 51
180.000009
  0
ARC
  8
LC-003-002-----0
 62
     1
  6
CONTINUOUS
 10
528.313782
 20
54.962482
 40
2.500000
 50
0.000000
 51
90.000003
  0
ARC
  8
LC-003-002-----0
 62
     1
  6
CONTINUOUS
 10
528.313782
 20
-65.037514
 40
2.500000
 50
269.999997
 51
0.000000
  0
ARC
  8
LC-003-002-----0
 62
     1
  6
CONTINUOUS
 10
443.313782
 20
-65.037514
 40
2.500000
 50
180.000009
 51
269.999997
  0
LINE
  8
LC-003-002-----0
 62
     1
  6
CONTINUOUS
 10
440.813782
 20
-55.687515
 11
440.813782
 21
-65.037514
  0
LINE
  8
LC-003-002-----0
 62
     1
  6
CONTINUOUS
 10
530.813782
 20
-55.687515
 11
530.813782
 21
-65.037514
  0
LINE
  8
LC-006-012-----0
 62
     2
  6
DASHED
 10
530.813782
 20
45.612484
 11
530.813782
 21
-55.687515
  0
LINE
  8
LC-006-012-----0
 62
     2
  6
DASHED
 10
440.813782
 20
45.612484
 11
440.813782
 21
-55.687515
  0
LINE
  8
LC-003-002-----0
 62
     1
  6
CONTINUOUS
 10
653.921204
 20
255.234741
 11
687.921204
 21
255.234741
  0
ARC
  8
LC-003-002-----0
 62
     1
  6
CONTINUOUS
 10
687.921204
 20
252.234741
 40
3.000000
 50
0.000000
 51
90.000003
  0
ARC
  8
LC-003-002-----0
 62
     1
  6
CONTINUOUS
 10
653.921204
 20
252.234741
 40
3.000000
 50
90.000003
 51
180.000009
  0
LINE
  8
LC-003-002-----0
 62
     1
  6
CONTINUOUS
 10
448.817963
 20
11.962484
 11
448.817963
 21
-22.037516
  0
ARC
  8
LC-003-002-----0
 62
     1
  6
CONTINUOUS
 10
451.817963
 20
11.962484
 40
3.000000
 50
90.000003
 51
180.000009
  0
ARC
  8
LC-003-002-----0
 62
     1
  6
CONTINUOUS
 10
451.817963
 20
-22.037516
 40
3.000000
 50
180.000009
 51
269.999997
  0
LINE
  8
LC-006-012-----0
 62
     2
  6
DASHED
 10
454.689026
 20
234.734741
 11
450.590485
 21
234.734741
  0
LINE
  8
LC-003-002-----0
 62
     1
  6
CONTINUOUS
 10
450.590485
 20
234.734741
 11
412.803314
 21
234.734741
  0
LINE
  8
LC-003-002-----0
 62
     1
  6
CONTINUOUS
 10
448.281403
 20
232.234741
 11
412.584595
 21
232.234741
  0
LINE
  8
LC-003-002-----0
 62
     1
  6
CONTINUOUS
 10
412.803314
 20
234.734741
 11
414.397186
 21
252.952637
  0
LINE
  8
LC-003-002-----0
 62
     1
  6
CONTINUOUS
 10
437.141357
 20
234.734741
 11
437.141357
 21
232.234741
  0
LINE
  8
LC-003-002-----0
 62
     1
  6
CONTINUOUS
 10
427.141357
 20
234.734741
 11
427.141357
 21
232.234741
  0
LINE
  8
LC-001-150-----0
 62
     2
  6
CONTINUOUS
 10
436.141357
 20
234.734741
 11
436.141357
 21
232.234741
  0
LINE
  8
LC-001-150-----0
 62
     2
  6
CONTINUOUS
 10
428.141357
 20
234.734741
 11
428.141357
 21
232.234741
  0
LINE
  8
LC-003-002-----0
 62
     1
  6
CONTINUOUS
 10
661.106201
 20
260.994751
 11
661.106201
 21
255.834732
  0
ARC
  8
LC-003-002-----0
 62
     1
  6
CONTINUOUS
 10
663.559937
 20
256.610962
 40
5.023776
 50
60.762872
 51
119.237126
  0
LINE
  8
LC-003-002-----0
 62
     1
  6
CONTINUOUS
 10
666.013733
 20
260.994751
 11
666.013733
 21
255.834732
  0
ARC
  8
LC-003-002-----0
 62
     1
  6
CONTINUOUS
 10
670.921204
 20
242.499634
 40
19.135103
 50
75.139615
 51
104.860390
  0
LINE
  8
LC-003-002-----0
 62
     1
  6
CONTINUOUS
 10
675.828674
 20
260.994751
 11
675.828674
 21
255.834732
  0
LINE
  8
LC-003-002-----0
 62
     1
  6
CONTINUOUS
 10
680.736145
 20
260.994751
 11
680.736145
 21
255.834732
  0
ARC
  8
LC-003-002-----0
 62
     1
  6
CONTINUOUS
 10
678.282410
 20
256.610962
 40
5.023776
 50
60.762872
 51
119.237126
  0
LINE
  8
LC-003-002-----0
 62
     1
  6
CONTINUOUS
 10
678.282410
 20
261.634735
 11
663.559937
 21
261.634735
  0
LINE
  8
LC-003-002-----0
 62
     1
  6
CONTINUOUS
 10
680.736145
 20
255.834747
 11
661.106201
 21
255.834747
  0
LINE
  8
LC-003-002-----0
 62
     1
  6
CONTINUOUS
 10
679.618896
 20
255.834747
 11
679.618896
 21
255.234741
  0
LINE
  8
LC-003-002-----0
 62
     1
  6
CONTINUOUS
 10
662.223450
 20
255.834747
 11
662.223450
 21
255.234741
  0
LINE
  8
LC-003-002-----0
 62
     1
  6
CONTINUOUS
 10
679.618896
 20
255.234741
 11
662.223450
 21
255.234741
  0
LINE
  8
LC-004-006-----0
 62
     2
  6
DASHDOT
 10
432.141357
 20
8.774093
 11
432.141357
 21
-20.477266
  0
LINE
  8
LC-003-002-----0
 62
     1
  6
CONTINUOUS
 10
650.921204
 20
234.734741
 11
650.921204
 21
264.734741
  0
LINE
  8
LC-003-002-----0
 62
     1
  6
CONTINUOUS
 10
675.921204
 20
234.734741
 11
675.921204
 21
232.234741
  0
LINE
  8
LC-003-002-----0
 62
     1
  6
CONTINUOUS
 10
665.921204
 20
234.734741
 11
665.921204
 21
232.234741
  0
LINE
  8
LC-001-150-----0
 62
     2
  6
CONTINUOUS
 10
674.921204
 20
234.734741
 11
674.921204
 21
232.234741
  0
LINE
  8
LC-001-150-----0
 62
     2
  6
CONTINUOUS
 10
666.921204
 20
234.734741
 11
666.921204
 21
232.234741
  0
LINE
  8
LC-003-002-----0
 62
     1
  6
CONTINUOUS
 10
718.421204
 20
234.734741
 11
623.421204
 21
234.734741
  0
LINE
  8
LC-003-002-----0
 62
     1
  6
CONTINUOUS
 10
718.421204
 20
232.234741
 11
623.421204
 21
232.234741
  0
LINE
  8
LC-003-002-----0
 62
     1
  6
CONTINUOUS
 10
690.921204
 20
234.734741
 11
690.921204
 21
264.734741
  0
LINE
  8
LC-003-002-----0
 62
     1
  6
CONTINUOUS
 10
422.326385
 20
260.994751
 11
422.326385
 21
255.834732
  0
ARC
  8
LC-003-002-----0
 62
     1
  6
CONTINUOUS
 10
424.780151
 20
256.610962
 40
5.023776
 50
60.762872
 51
119.237126
  0
LINE
  8
LC-003-002-----0
 62
     1
  6
CONTINUOUS
 10
427.233887
 20
260.994751
 11
427.233887
 21
255.834732
  0
ARC
  8
LC-003-002-----0
 62
     1
  6
CONTINUOUS
 10
432.141357
 20
242.499634
 40
19.135103
 50
75.139615
 51
104.860390
  0
LINE
  8
LC-003-002-----0
 62
     1
  6
CONTINUOUS
 10
437.048828
 20
260.994751
 11
437.048828
 21
255.834732
  0
LINE
  8
LC-003-002-----0
 62
     1
  6
CONTINUOUS
 10
441.956299
 20
260.994751
 11
441.956299
 21
255.834732
  0
ARC
  8
LC-003-002-----0
 62
     1
  6
CONTINUOUS
 10
439.502563
 20
256.610962
 40
5.023776
 50
60.762872
 51
119.237126
  0
LINE
  8
LC-003-002-----0
 62
     1
  6
CONTINUOUS
 10
439.502563
 20
261.634735
 11
424.780151
 21
261.634735
  0
LINE
  8
LC-003-002-----0
 62
     1
  6
CONTINUOUS
 10
441.956299
 20
255.834747
 11
422.326385
 21
255.834747
  0
LINE
  8
LC-003-002-----0
 62
     1
  6
CONTINUOUS
 10
440.839081
 20
255.834747
 11
440.839081
 21
255.234741
  0
LINE
  8
LC-003-002-----0
 62
     1
  6
CONTINUOUS
 10
423.443604
 20
255.834747
 11
423.443604
 21
255.234741
  0
LINE
  8
LC-003-002-----0
 62
     1
  6
CONTINUOUS
 10
440.839081
 20
255.234741
 11
423.443604
 21
255.234741
  0
LINE
  8
LC-003-002-----0
 62
     1
  6
CONTINUOUS
 10
437.048828
 20
3.462484
 11
441.956299
 21
-5.037516
  0
LINE
  8
LC-003-002-----0
 62
     1
  6
CONTINUOUS
 10
422.326385
 20
-5.037516
 11
427.233887
 21
-13.537516
  0
LINE
  8
LC-003-002-----0
 62
     1
  6
CONTINUOUS
 10
427.233887
 20
3.462484
 11
437.048828
 21
3.462484
  0
LINE
  8
LC-003-002-----0
 62
     1
  6
CONTINUOUS
 10
427.233887
 20
-13.537516
 11
437.048828
 21
-13.537516
  0
LINE
  8
LC-003-002-----0
 62
     1
  6
CONTINUOUS
 10
422.326385
 20
-5.037516
 11
427.233887
 21
3.462484
  0
LINE
  8
LC-003-002-----0
 62
     1
  6
CONTINUOUS
 10
437.048828
 20
-13.537516
 11
441.956299
 21
-5.037517
  0
CIRCLE
  8
LC-003-002-----0
 62
     1
  6
CONTINUOUS
 10
432.141357
 20
-5.037516
 40
8.500000
  0
ENDSEC
  0
EOF
