  0
SECTION
  2
HEADER
  9
$LIMMIN
 10
771.394836
 20
478.495209
  9
$LIMMAX
 10
1249.032959
 20
938.579895
  9
$EXTMIN
 10
771.394836
 20
478.495209
  9
$EXTMAX
 10
1249.032959
 20
938.579895
  0
ENDSEC
  0
SECTION
  2
TABLES
  0
TABLE
  2
LTYPE
 70
     3
  0
LTYPE
  2
CONTINUOUS
 70
    64
  3
Ausgezogene Linie
 72
    65
 73
     0
 40
0.0
  0
LTYPE
  2
DASHED
 70
    64
  3
__ __ __ __ __ __ __ __ __ __ __ __ __ __ __
 72
    65
 73
     2
 40
0.75
 49
0.5
 49
-0.25
  0
LTYPE
  2
DASHDOT
 70
    64
  3
__ . __ . __ . __ . __ . __ . __ . __ . __ . __
 72
    65
 73
     4
 40
1.0
 49
0.5
 49
-0.25
 49
0.0
 49
-0.25
  0
ENDTAB
  0
TABLE
  2
LAYER
 70
     4
  0
LAYER
  2
LC-003-002-----0
 70
    64
 62
     7
  6
CONTINUOUS
  0
LAYER
  2
LC-004-006-----0
 70
    64
 62
     7
  6
CONTINUOUS
  0
LAYER
  2
LC-006-012-----0
 70
    64
 62
     7
  6
CONTINUOUS
  0
LAYER
  2
LC-001-150-----0
 70
    64
 62
     7
  6
CONTINUOUS
  0
ENDTAB
  0
TABLE
  2
STYLE
 70
     1
  0
STYLE
  2
TXT8
 70
    64
 40
0.0
 41
1.0
 50
0.0
 71
     0
 42
3.500000
  3
TXT8
  4

  0
ENDTAB
  0
ENDSEC
  0
SECTION
  2
BLOCKS
  0
ENDSEC
  0
SECTION
  2
ENTITIES
  0
LINE
  8
LC-004-006-----0
 62
     2
  6
DASHDOT
 10
952.716553
 20
573.796509
 11
952.716553
 21
606.935120
  0
LINE
  8
LC-003-002-----0
 62
     1
  6
CONTINUOUS
 10
982.406555
 20
532.492615
 11
982.406555
 21
648.492615
  0
LINE
  8
LC-003-002-----0
 62
     1
  6
CONTINUOUS
 10
979.406555
 20
651.492615
 11
957.004639
 21
651.492615
  0
LINE
  8
LC-003-002-----0
 62
     1
  6
CONTINUOUS
 10
782.406555
 20
532.492615
 11
782.406555
 21
648.492615
  0
LINE
  8
LC-003-002-----0
 62
     1
  6
CONTINUOUS
 10
979.406555
 20
529.492615
 11
957.004639
 21
529.492615
  0
ARC
  8
LC-003-002-----0
 62
     1
  6
CONTINUOUS
 10
785.406555
 20
532.492615
 40
3.000000
 50
180.000009
 51
269.999997
  0
ARC
  8
LC-003-002-----0
 62
     1
  6
CONTINUOUS
 10
979.406555
 20
532.492615
 40
3.000000
 50
269.999997
 51
0.000000
  0
ARC
  8
LC-003-002-----0
 62
     1
  6
CONTINUOUS
 10
979.406555
 20
648.492615
 40
3.000000
 50
0.000000
 51
90.000003
  0
ARC
  8
LC-003-002-----0
 62
     1
  6
CONTINUOUS
 10
785.406555
 20
648.492615
 40
3.000000
 50
90.000003
 51
180.000009
  0
LINE
  8
LC-004-006-----0
 62
     2
  6
DASHDOT
 10
989.892029
 20
590.492615
 11
771.394836
 21
590.492615
  0
LINE
  8
LC-004-006-----0
 62
     2
  6
DASHDOT
 10
977.531860
 20
545.492615
 11
957.150818
 21
545.492615
  0
LINE
  8
LC-004-006-----0
 62
     2
  6
DASHDOT
 10
967.406555
 20
535.489990
 11
967.406555
 21
554.801086
  0
CIRCLE
  8
LC-003-002-----0
 62
     1
  6
CONTINUOUS
 10
967.406555
 20
545.492615
 40
6.500000
  0
LINE
  8
LC-004-006-----0
 62
     2
  6
DASHDOT
 10
977.531860
 20
635.492615
 11
957.150818
 21
635.492615
  0
LINE
  8
LC-004-006-----0
 62
     2
  6
DASHDOT
 10
967.406555
 20
645.495300
 11
967.406555
 21
626.184204
  0
CIRCLE
  8
LC-003-002-----0
 62
     1
  6
CONTINUOUS
 10
967.406555
 20
635.492615
 40
6.500000
  0
LINE
  8
LC-004-006-----0
 62
     2
  6
DASHDOT
 10
787.281250
 20
545.492615
 11
807.662292
 21
545.492615
  0
LINE
  8
LC-004-006-----0
 62
     2
  6
DASHDOT
 10
797.406555
 20
535.489990
 11
797.406555
 21
554.801086
  0
CIRCLE
  8
LC-003-002-----0
 62
     1
  6
CONTINUOUS
 10
797.406555
 20
545.492615
 40
6.500000
  0
LINE
  8
LC-004-006-----0
 62
     2
  6
DASHDOT
 10
787.281250
 20
635.492615
 11
807.662292
 21
635.492615
  0
LINE
  8
LC-004-006-----0
 62
     2
  6
DASHDOT
 10
797.406555
 20
645.495300
 11
797.406555
 21
626.184204
  0
CIRCLE
  8
LC-003-002-----0
 62
     1
  6
CONTINUOUS
 10
797.406555
 20
635.492615
 40
6.500000
  0
LINE
  8
LC-003-002-----0
 62
     1
  6
CONTINUOUS
 10
982.406555
 20
620.492615
 11
782.406555
 21
620.492615
  0
LINE
  8
LC-003-002-----0
 62
     1
  6
CONTINUOUS
 10
982.406555
 20
560.492615
 11
782.406555
 21
560.492615
  0
LINE
  8
LC-003-002-----0
 62
     1
  6
CONTINUOUS
 10
937.397461
 20
563.492615
 11
937.397461
 21
617.492615
  0
LINE
  8
LC-003-002-----0
 62
     1
  6
CONTINUOUS
 10
971.021606
 20
563.492615
 11
971.021606
 21
617.492615
  0
ARC
  8
LC-003-002-----0
 62
     1
  6
CONTINUOUS
 10
968.021606
 20
563.492615
 40
3.000000
 50
269.999997
 51
0.000000
  0
ARC
  8
LC-003-002-----0
 62
     1
  6
CONTINUOUS
 10
968.021606
 20
617.492615
 40
3.000000
 50
0.000000
 51
90.000003
  0
ARC
  8
LC-003-002-----0
 62
     1
  6
CONTINUOUS
 10
934.397461
 20
617.492615
 40
3.000000
 50
0.000000
 51
90.000003
  0
ARC
  8
LC-003-002-----0
 62
     1
  6
CONTINUOUS
 10
934.397461
 20
563.492615
 40
3.000000
 50
269.999997
 51
0.000000
  0
LINE
  8
LC-003-002-----0
 62
     1
  6
CONTINUOUS
 10
957.406555
 20
530.992615
 11
957.406555
 21
560.492615
  0
LINE
  8
LC-003-002-----0
 62
     1
  6
CONTINUOUS
 10
807.406555
 20
530.992615
 11
807.406555
 21
560.492615
  0
LINE
  8
LC-003-002-----0
 62
     1
  6
CONTINUOUS
 10
954.406555
 20
652.992615
 11
810.406555
 21
652.992615
  0
LINE
  8
LC-003-002-----0
 62
     1
  6
CONTINUOUS
 10
954.406555
 20
527.992615
 11
810.406555
 21
527.992615
  0
ARC
  8
LC-003-002-----0
 62
     1
  6
CONTINUOUS
 10
810.406555
 20
530.992615
 40
3.000000
 50
180.000009
 51
269.999997
  0
ARC
  8
LC-003-002-----0
 62
     1
  6
CONTINUOUS
 10
810.406555
 20
649.992615
 40
3.000000
 50
90.000003
 51
180.000009
  0
ARC
  8
LC-003-002-----0
 62
     1
  6
CONTINUOUS
 10
954.406555
 20
649.992615
 40
3.000000
 50
0.000000
 51
90.000003
  0
ARC
  8
LC-003-002-----0
 62
     1
  6
CONTINUOUS
 10
954.406555
 20
530.992615
 40
3.000000
 50
269.999997
 51
0.000000
  0
LINE
  8
LC-006-012-----0
 62
     2
  6
DASHED
 10
957.004639
 20
529.492615
 11
807.808472
 21
529.492615
  0
LINE
  8
LC-003-002-----0
 62
     1
  6
CONTINUOUS
 10
807.808472
 20
529.492615
 11
785.406555
 21
529.492615
  0
LINE
  8
LC-006-012-----0
 62
     2
  6
DASHED
 10
957.004639
 20
651.492615
 11
807.808472
 21
651.492615
  0
LINE
  8
LC-003-002-----0
 62
     1
  6
CONTINUOUS
 10
807.808472
 20
651.492615
 11
785.406555
 21
651.492615
  0
LINE
  8
LC-003-002-----0
 62
     1
  6
CONTINUOUS
 10
957.406555
 20
620.492615
 11
957.406555
 21
649.992615
  0
LINE
  8
LC-003-002-----0
 62
     1
  6
CONTINUOUS
 10
807.406555
 20
620.492615
 11
807.406555
 21
649.992615
  0
LINE
  8
LC-003-002-----0
 62
     1
  6
CONTINUOUS
 10
816.338928
 20
523.992615
 11
816.338928
 21
527.992615
  0
LINE
  8
LC-003-002-----0
 62
     1
  6
CONTINUOUS
 10
879.106567
 20
523.992615
 11
879.106567
 21
527.992615
  0
LINE
  8
LC-003-002-----0
 62
     1
  6
CONTINUOUS
 10
885.706543
 20
523.992615
 11
885.706543
 21
527.992615
  0
LINE
  8
LC-003-002-----0
 62
     1
  6
CONTINUOUS
 10
948.474182
 20
523.992615
 11
948.474182
 21
527.992615
  0
LINE
  8
LC-003-002-----0
 62
     1
  6
CONTINUOUS
 10
948.474182
 20
523.992615
 11
816.338928
 21
523.992615
  0
LINE
  8
LC-004-006-----0
 62
     2
  6
DASHDOT
 10
882.406555
 20
478.495209
 11
882.406555
 21
703.355469
  0
LINE
  8
LC-003-002-----0
 62
     1
  6
CONTINUOUS
 10
816.338928
 20
656.992615
 11
816.338928
 21
652.992615
  0
LINE
  8
LC-003-002-----0
 62
     1
  6
CONTINUOUS
 10
879.106567
 20
656.992615
 11
879.106567
 21
652.992615
  0
LINE
  8
LC-003-002-----0
 62
     1
  6
CONTINUOUS
 10
885.706543
 20
656.992615
 11
885.706543
 21
652.992615
  0
LINE
  8
LC-003-002-----0
 62
     1
  6
CONTINUOUS
 10
948.474182
 20
656.992615
 11
948.474182
 21
652.992615
  0
LINE
  8
LC-003-002-----0
 62
     1
  6
CONTINUOUS
 10
948.474182
 20
656.992615
 11
816.338928
 21
656.992615
  0
LINE
  8
LC-003-002-----0
 62
     1
  6
CONTINUOUS
 10
842.406555
 20
485.071289
 11
842.406555
 21
507.992645
  0
LINE
  8
LC-003-002-----0
 62
     1
  6
CONTINUOUS
 10
822.406555
 20
510.992645
 11
822.406555
 21
523.992615
  0
LINE
  8
LC-003-002-----0
 62
     1
  6
CONTINUOUS
 10
942.406555
 20
510.992645
 11
942.406555
 21
523.992615
  0
LINE
  8
LC-003-002-----0
 62
     1
  6
CONTINUOUS
 10
939.406555
 20
507.992645
 11
825.406555
 21
507.992645
  0
LINE
  8
LC-003-002-----0
 62
     1
  6
CONTINUOUS
 10
939.406555
 20
672.992615
 11
825.406555
 21
672.992615
  0
ARC
  8
LC-003-002-----0
 62
     1
  6
CONTINUOUS
 10
825.406555
 20
510.992645
 40
3.000000
 50
180.000009
 51
269.999997
  0
ARC
  8
LC-003-002-----0
 62
     1
  6
CONTINUOUS
 10
939.406555
 20
510.992645
 40
3.000000
 50
269.999997
 51
0.000000
  0
ARC
  8
LC-003-002-----0
 62
     1
  6
CONTINUOUS
 10
939.406555
 20
669.992615
 40
3.000000
 50
0.000000
 51
90.000003
  0
ARC
  8
LC-003-002-----0
 62
     1
  6
CONTINUOUS
 10
825.406555
 20
669.992615
 40
3.000000
 50
90.000003
 51
180.000009
  0
LINE
  8
LC-006-012-----0
 62
     2
  6
DASHED
 10
822.406555
 20
523.992615
 11
822.406555
 21
656.992615
  0
LINE
  8
LC-006-012-----0
 62
     2
  6
DASHED
 10
942.406555
 20
523.992615
 11
942.406555
 21
656.992615
  0
LINE
  8
LC-003-002-----0
 62
     1
  6
CONTINUOUS
 10
942.406555
 20
656.992615
 11
942.406555
 21
669.992615
  0
LINE
  8
LC-003-002-----0
 62
     1
  6
CONTINUOUS
 10
822.406555
 20
656.992615
 11
822.406555
 21
669.992615
  0
LINE
  8
LC-001-150-----0
 62
     2
  6
CONTINUOUS
 10
922.406555
 20
487.531128
 11
895.405151
 21
486.377380
  0
LINE
  8
LC-001-150-----0
 62
     2
  6
CONTINUOUS
 10
895.405151
 20
486.377380
 11
860.445068
 21
484.522766
  0
LINE
  8
LC-001-150-----0
 62
     2
  6
CONTINUOUS
 10
860.445068
 20
484.522766
 11
842.406555
 21
485.071289
  0
LINE
  8
LC-001-150-----0
 62
     2
  6
CONTINUOUS
 10
922.406555
 20
693.454163
 11
895.405151
 21
694.607849
  0
LINE
  8
LC-001-150-----0
 62
     2
  6
CONTINUOUS
 10
895.405151
 20
694.607849
 11
860.445068
 21
696.462524
  0
LINE
  8
LC-001-150-----0
 62
     2
  6
CONTINUOUS
 10
860.445068
 20
696.462524
 11
842.406555
 21
695.914001
  0
LINE
  8
LC-006-012-----0
 62
     2
  6
DASHED
 10
842.406555
 20
507.992645
 11
842.406555
 21
672.992615
  0
LINE
  8
LC-003-002-----0
 62
     1
  6
CONTINUOUS
 10
922.406555
 20
487.531128
 11
922.406555
 21
507.992645
  0
LINE
  8
LC-006-012-----0
 62
     2
  6
DASHED
 10
922.406555
 20
507.992645
 11
922.406555
 21
672.992615
  0
LINE
  8
LC-003-002-----0
 62
     1
  6
CONTINUOUS
 10
922.406555
 20
672.992615
 11
922.406555
 21
693.454163
  0
LINE
  8
LC-003-002-----0
 62
     1
  6
CONTINUOUS
 10
842.406555
 20
672.992615
 11
842.406555
 21
695.914001
  0
LINE
  8
LC-003-002-----0
 62
     1
  6
CONTINUOUS
 10
958.201355
 20
599.992615
 11
963.686218
 21
590.492615
  0
LINE
  8
LC-003-002-----0
 62
     1
  6
CONTINUOUS
 10
941.746887
 20
590.492615
 11
947.231750
 21
580.992615
  0
LINE
  8
LC-003-002-----0
 62
     1
  6
CONTINUOUS
 10
947.231750
 20
599.992615
 11
958.201355
 21
599.992615
  0
LINE
  8
LC-003-002-----0
 62
     1
  6
CONTINUOUS
 10
947.231750
 20
580.992615
 11
958.201355
 21
580.992615
  0
LINE
  8
LC-003-002-----0
 62
     1
  6
CONTINUOUS
 10
941.746887
 20
590.492615
 11
947.231750
 21
599.992615
  0
LINE
  8
LC-003-002-----0
 62
     1
  6
CONTINUOUS
 10
958.201355
 20
580.992615
 11
963.686218
 21
590.492615
  0
CIRCLE
  8
LC-003-002-----0
 62
     1
  6
CONTINUOUS
 10
952.716553
 20
590.492615
 40
9.500000
  0
LINE
  8
LC-003-002-----0
 62
     1
  6
CONTINUOUS
 10
782.406555
 20
779.103149
 11
782.406555
 21
760.103149
  0
LINE
  8
LC-003-002-----0
 62
     1
  6
CONTINUOUS
 10
782.406555
 20
760.103149
 11
982.406555
 21
760.103149
  0
LINE
  8
LC-003-002-----0
 62
     1
  6
CONTINUOUS
 10
785.406555
 20
782.103149
 11
827.098328
 21
782.103149
  0
LINE
  8
LC-003-002-----0
 62
     1
  6
CONTINUOUS
 10
982.406555
 20
779.103149
 11
982.406555
 21
760.103149
  0
ARC
  8
LC-003-002-----0
 62
     1
  6
CONTINUOUS
 10
785.406555
 20
779.103149
 40
3.000000
 50
90.000003
 51
179.999991
  0
ARC
  8
LC-003-002-----0
 62
     1
  6
CONTINUOUS
 10
979.406555
 20
779.103149
 40
3.000000
 50
0.000000
 51
90.000003
  0
LINE
  8
LC-004-006-----0
 62
     2
  6
DASHDOT
 10
882.406555
 20
753.709778
 11
882.406555
 21
938.579895
  0
LINE
  8
LC-004-006-----0
 62
     2
  6
DASHDOT
 10
801.850037
 20
840.103149
 11
964.016663
 21
840.103149
  0
ARC
  8
LC-003-002-----0
 62
     1
  6
CONTINUOUS
 10
882.406555
 20
840.103149
 40
90.000000
 50
8.437164
 51
126.249326
  0
CIRCLE
  8
LC-003-002-----0
 62
     1
  6
CONTINUOUS
 10
882.406555
 20
840.103149
 40
40.000000
  0
CIRCLE
  8
LC-003-002-----0
 62
     1
  6
CONTINUOUS
 10
882.406555
 20
840.103149
 40
60.000000
  0
CIRCLE
  8
LC-003-002-----0
 62
     1
  6
CONTINUOUS
 10
882.406555
 20
840.103149
 40
55.000000
  0
LINE
  8
LC-003-002-----0
 62
     1
  6
CONTINUOUS
 10
982.374084
 20
779.543335
 11
971.432495
 21
853.308350
  0
LINE
  8
LC-003-002-----0
 62
     1
  6
CONTINUOUS
 10
782.417969
 20
779.364624
 11
791.231445
 21
880.103149
  0
LINE
  8
LC-003-002-----0
 62
     1
  6
CONTINUOUS
 10
827.415649
 20
912.103149
 11
796.780090
 21
912.103149
  0
ARC
  8
LC-003-002-----0
 62
     1
  6
CONTINUOUS
 10
796.780090
 20
909.103149
 40
3.000000
 50
90.000003
 51
174.999992
  0
ARC
  8
LC-003-002-----0
 62
     1
  6
CONTINUOUS
 10
827.415649
 20
915.103149
 40
3.000000
 50
269.999997
 51
306.249321
  0
LINE
  8
LC-004-006-----0
 62
     2
  6
DASHDOT
 10
967.406555
 20
753.709778
 11
967.406555
 21
788.670044
  0
LINE
  8
LC-006-012-----0
 62
     2
  6
DASHED
 10
973.906555
 20
760.103149
 11
973.906555
 21
782.103149
  0
LINE
  8
LC-006-012-----0
 62
     2
  6
DASHED
 10
960.906555
 20
760.103149
 11
960.906555
 21
782.103149
  0
LINE
  8
LC-004-006-----0
 62
     2
  6
DASHDOT
 10
797.406555
 20
753.709778
 11
797.406555
 21
788.670044
  0
LINE
  8
LC-006-012-----0
 62
     2
  6
DASHED
 10
790.906555
 20
760.103149
 11
790.906555
 21
782.103149
  0
LINE
  8
LC-006-012-----0
 62
     2
  6
DASHED
 10
803.906555
 20
760.103149
 11
803.906555
 21
782.103149
  0
LINE
  8
LC-003-002-----0
 62
     1
  6
CONTINUOUS
 10
1068.490234
 20
760.103149
 11
1190.490234
 21
760.103149
  0
LINE
  8
LC-003-002-----0
 62
     1
  6
CONTINUOUS
 10
1190.490234
 20
760.103149
 11
1190.490234
 21
779.103149
  0
LINE
  8
LC-003-002-----0
 62
     1
  6
CONTINUOUS
 10
937.714783
 20
782.103149
 11
979.406555
 21
782.103149
  0
ARC
  8
LC-003-002-----0
 62
     1
  6
CONTINUOUS
 10
882.406555
 20
840.103149
 40
75.000000
 50
147.769053
 51
145.017006
  0
ARC
  8
LC-003-002-----0
 62
     1
  6
CONTINUOUS
 10
827.098328
 20
785.103149
 40
3.000000
 50
269.999997
 51
44.839902
  0
ARC
  8
LC-003-002-----0
 62
     1
  6
CONTINUOUS
 10
937.714783
 20
785.103149
 40
3.000000
 50
135.160100
 51
269.999997
  0
LINE
  8
LC-003-002-----0
 62
     1
  6
CONTINUOUS
 10
1102.490234
 20
930.103149
 11
1156.490234
 21
930.103149
  0
LINE
  8
LC-003-002-----0
 62
     1
  6
CONTINUOUS
 10
1071.490234
 20
782.103149
 11
1187.490234
 21
782.103149
  0
LINE
  8
LC-003-002-----0
 62
     1
  6
CONTINUOUS
 10
1068.490234
 20
760.103149
 11
1068.490234
 21
779.103149
  0
ARC
  8
LC-003-002-----0
 62
     1
  6
CONTINUOUS
 10
1071.490234
 20
779.103149
 40
3.000000
 50
90.000003
 51
179.999991
  0
ARC
  8
LC-003-002-----0
 62
     1
  6
CONTINUOUS
 10
1187.490234
 20
779.103149
 40
3.000000
 50
0.000000
 51
90.000003
  0
LINE
  8
LC-004-006-----0
 62
     2
  6
DASHDOT
 10
1129.490234
 20
753.709778
 11
1129.490234
 21
938.579895
  0
LINE
  8
LC-003-002-----0
 62
     1
  6
CONTINUOUS
 10
1162.490234
 20
915.103149
 11
1188.990234
 21
915.103149
  0
LINE
  8
LC-003-002-----0
 62
     1
  6
CONTINUOUS
 10
1191.990234
 20
768.103149
 11
1191.990234
 21
912.103149
  0
LINE
  8
LC-003-002-----0
 62
     1
  6
CONTINUOUS
 10
1066.990234
 20
768.103149
 11
1066.990234
 21
912.103149
  0
ARC
  8
LC-003-002-----0
 62
     1
  6
CONTINUOUS
 10
1069.990234
 20
768.103149
 40
3.000000
 50
179.999991
 51
239.999997
  0
ARC
  8
LC-003-002-----0
 62
     1
  6
CONTINUOUS
 10
1188.990234
 20
912.103149
 40
3.000000
 50
0.000000
 51
90.000003
  0
ARC
  8
LC-003-002-----0
 62
     1
  6
CONTINUOUS
 10
1069.990234
 20
912.103149
 40
3.000000
 50
90.000003
 51
179.999991
  0
LINE
  8
LC-003-002-----0
 62
     1
  6
CONTINUOUS
 10
1102.490234
 20
912.103149
 11
1156.490234
 21
912.103149
  0
ARC
  8
LC-003-002-----0
 62
     1
  6
CONTINUOUS
 10
1156.490234
 20
909.103149
 40
3.000000
 50
0.000000
 51
90.000003
  0
ARC
  8
LC-003-002-----0
 62
     1
  6
CONTINUOUS
 10
1188.990234
 20
768.103149
 40
3.000000
 50
299.999998
 51
0.000000
  0
LINE
  8
LC-003-002-----0
 62
     1
  6
CONTINUOUS
 10
1159.490234
 20
785.103149
 11
1159.490234
 21
880.103149
  0
LINE
  8
LC-003-002-----0
 62
     1
  6
CONTINUOUS
 10
1099.490234
 20
785.103149
 11
1099.490234
 21
880.103149
  0
ARC
  8
LC-003-002-----0
 62
     1
  6
CONTINUOUS
 10
1102.490234
 20
927.103149
 40
3.000000
 50
90.000003
 51
179.999991
  0
ARC
  8
LC-003-002-----0
 62
     1
  6
CONTINUOUS
 10
1156.490234
 20
927.103149
 40
3.000000
 50
0.000000
 51
90.000003
  0
ARC
  8
LC-003-002-----0
 62
     1
  6
CONTINUOUS
 10
1162.490234
 20
785.103149
 40
3.000000
 50
179.999991
 51
269.999997
  0
ARC
  8
LC-003-002-----0
 62
     1
  6
CONTINUOUS
 10
1096.490234
 20
785.103149
 40
3.000000
 50
269.999997
 51
0.000000
  0
ARC
  8
LC-003-002-----0
 62
     1
  6
CONTINUOUS
 10
1096.490234
 20
918.103149
 40
3.000000
 50
269.999997
 51
0.000000
  0
ARC
  8
LC-003-002-----0
 62
     1
  6
CONTINUOUS
 10
882.406555
 20
836.803162
 40
66.150002
 50
112.955906
 51
67.044092
  0
ARC
  8
LC-003-002-----0
 62
     1
  6
CONTINUOUS
 10
1162.490234
 20
918.103149
 40
3.000000
 50
179.999991
 51
269.999997
  0
LINE
  8
LC-003-002-----0
 62
     1
  6
CONTINUOUS
 10
1096.490234
 20
915.103149
 11
1069.990234
 21
915.103149
  0
ARC
  8
LC-003-002-----0
 62
     1
  6
CONTINUOUS
 10
1102.490234
 20
909.103149
 40
3.000000
 50
90.000003
 51
179.999991
  0
LINE
  8
LC-003-002-----0
 62
     1
  6
CONTINUOUS
 10
1191.990234
 20
770.653137
 11
1195.990234
 21
770.653137
  0
LINE
  8
LC-003-002-----0
 62
     1
  6
CONTINUOUS
 10
1191.990234
 20
914.256226
 11
1195.990234
 21
914.256226
  0
LINE
  8
LC-003-002-----0
 62
     1
  6
CONTINUOUS
 10
1191.990234
 20
897.714417
 11
1195.990234
 21
897.714417
  0
LINE
  8
LC-003-002-----0
 62
     1
  6
CONTINUOUS
 10
1195.990234
 20
770.653137
 11
1195.990234
 21
914.256226
  0
LINE
  8
LC-003-002-----0
 62
     1
  6
CONTINUOUS
 10
1191.990234
 20
912.103149
 11
1191.990234
 21
914.256226
  0
LINE
  8
LC-003-002-----0
 62
     1
  6
CONTINUOUS
 10
908.206543
 20
897.714417
 11
905.417603
 21
906.115662
  0
LINE
  8
LC-003-002-----0
 62
     1
  6
CONTINUOUS
 10
898.348999
 20
912.158752
 11
885.706543
 21
914.256226
  0
LINE
  8
LC-003-002-----0
 62
     1
  6
CONTINUOUS
 10
885.706543
 20
900.012329
 11
885.706543
 21
914.256226
  0
LINE
  8
LC-003-002-----0
 62
     1
  6
CONTINUOUS
 10
879.106567
 20
900.012329
 11
879.106567
 21
914.256226
  0
LINE
  8
LC-003-002-----0
 62
     1
  6
CONTINUOUS
 10
879.106567
 20
914.256226
 11
866.464111
 21
912.158752
  0
LINE
  8
LC-003-002-----0
 62
     1
  6
CONTINUOUS
 10
856.606567
 20
897.714417
 11
859.395508
 21
906.115662
  0
CIRCLE
  8
LC-003-002-----0
 62
     1
  6
CONTINUOUS
 10
871.606567
 20
905.256226
 40
3.750000
  0
CIRCLE
  8
LC-003-002-----0
 62
     1
  6
CONTINUOUS
 10
893.206543
 20
905.256226
 40
3.750000
  0
ARC
  8
LC-003-002-----0
 62
     1
  6
CONTINUOUS
 10
896.875977
 20
903.280090
 40
9.000000
 50
18.364577
 51
80.579874
  0
ARC
  8
LC-003-002-----0
 62
     1
  6
CONTINUOUS
 10
867.937134
 20
903.280090
 40
9.000000
 50
99.420124
 51
161.635416
  0
LINE
  8
LC-003-002-----0
 62
     1
  6
CONTINUOUS
 10
1066.990234
 20
770.653137
 11
1062.990234
 21
770.653137
  0
LINE
  8
LC-003-002-----0
 62
     1
  6
CONTINUOUS
 10
1066.990234
 20
914.256226
 11
1062.990234
 21
914.256226
  0
LINE
  8
LC-003-002-----0
 62
     1
  6
CONTINUOUS
 10
1066.990234
 20
897.714417
 11
1062.990234
 21
897.714417
  0
LINE
  8
LC-003-002-----0
 62
     1
  6
CONTINUOUS
 10
1062.990234
 20
770.653137
 11
1062.990234
 21
914.256226
  0
LINE
  8
LC-003-002-----0
 62
     1
  6
CONTINUOUS
 10
1066.990234
 20
912.103149
 11
1066.990234
 21
914.256226
  0
LINE
  8
LC-004-006-----0
 62
     2
  6
DASHDOT
 10
1174.490234
 20
753.709778
 11
1174.490234
 21
788.670044
  0
LINE
  8
LC-004-006-----0
 62
     2
  6
DASHDOT
 10
1084.490234
 20
753.709778
 11
1084.490234
 21
788.670044
  0
LINE
  8
LC-006-012-----0
 62
     2
  6
DASHED
 10
1077.990234
 20
760.103149
 11
1077.990234
 21
782.103149
  0
LINE
  8
LC-006-012-----0
 62
     2
  6
DASHED
 10
1090.990234
 20
760.103149
 11
1090.990234
 21
782.103149
  0
LINE
  8
LC-006-012-----0
 62
     2
  6
DASHED
 10
1180.990234
 20
760.103149
 11
1180.990234
 21
782.103149
  0
LINE
  8
LC-006-012-----0
 62
     2
  6
DASHED
 10
1167.990234
 20
760.103149
 11
1167.990234
 21
782.103149
  0
LINE
  8
LC-003-002-----0
 62
     1
  6
CONTINUOUS
 10
1049.990234
 20
900.103149
 11
1062.990234
 21
900.103149
  0
LINE
  8
LC-003-002-----0
 62
     1
  6
CONTINUOUS
 10
1049.990234
 20
780.103149
 11
1062.990234
 21
780.103149
  0
LINE
  8
LC-003-002-----0
 62
     1
  6
CONTINUOUS
 10
1211.990234
 20
783.103149
 11
1211.990234
 21
897.103149
  0
LINE
  8
LC-003-002-----0
 62
     1
  6
CONTINUOUS
 10
1046.990234
 20
783.103149
 11
1046.990234
 21
897.103149
  0
ARC
  8
LC-003-002-----0
 62
     1
  6
CONTINUOUS
 10
1049.990234
 20
897.103149
 40
3.000000
 50
90.000003
 51
179.999991
  0
ARC
  8
LC-003-002-----0
 62
     1
  6
CONTINUOUS
 10
1049.990234
 20
783.103149
 40
3.000000
 50
179.999991
 51
269.999997
  0
ARC
  8
LC-003-002-----0
 62
     1
  6
CONTINUOUS
 10
1208.990234
 20
897.103149
 40
3.000000
 50
0.000000
 51
90.000003
  0
ARC
  8
LC-003-002-----0
 62
     1
  6
CONTINUOUS
 10
1208.990234
 20
783.103149
 40
3.000000
 50
269.999997
 51
0.000000
  0
LINE
  8
LC-003-002-----0
 62
     1
  6
CONTINUOUS
 10
1195.990234
 20
900.103149
 11
1208.990234
 21
900.103149
  0
LINE
  8
LC-003-002-----0
 62
     1
  6
CONTINUOUS
 10
1195.990234
 20
780.103149
 11
1208.990234
 21
780.103149
  0
LINE
  8
LC-006-012-----0
 62
     2
  6
DASHED
 10
1062.990234
 20
780.103149
 11
1195.990234
 21
780.103149
  0
LINE
  8
LC-006-012-----0
 62
     2
  6
DASHED
 10
1062.990234
 20
900.103149
 11
1195.990234
 21
900.103149
  0
LINE
  8
LC-004-006-----0
 62
     2
  6
DASHDOT
 10
1008.608215
 20
840.103149
 11
1249.032959
 21
840.103149
  0
LINE
  8
LC-003-002-----0
 62
     1
  6
CONTINUOUS
 10
1020.551514
 20
880.103149
 11
1046.990234
 21
880.103149
  0
LINE
  8
LC-003-002-----0
 62
     1
  6
CONTINUOUS
 10
1018.791443
 20
800.103149
 11
1046.990234
 21
800.103149
  0
LINE
  8
LC-001-150-----0
 62
     2
  6
CONTINUOUS
 10
1238.395874
 20
880.103149
 11
1237.281616
 21
861.801147
  0
LINE
  8
LC-001-150-----0
 62
     2
  6
CONTINUOUS
 10
1237.281616
 20
861.801147
 11
1240.735107
 21
831.649597
  0
LINE
  8
LC-001-150-----0
 62
     2
  6
CONTINUOUS
 10
1240.735107
 20
831.649597
 11
1238.968994
 21
800.103149
  0
LINE
  8
LC-001-150-----0
 62
     2
  6
CONTINUOUS
 10
1020.551514
 20
880.103149
 11
1017.126709
 21
857.747375
  0
LINE
  8
LC-001-150-----0
 62
     2
  6
CONTINUOUS
 10
1017.126709
 20
857.747375
 11
1019.208374
 21
813.611389
  0
LINE
  8
LC-001-150-----0
 62
     2
  6
CONTINUOUS
 10
1019.208374
 20
813.611389
 11
1018.791443
 21
800.103149
  0
LINE
  8
LC-003-002-----0
 62
     1
  6
CONTINUOUS
 10
1211.990234
 20
880.103149
 11
1238.395874
 21
880.103149
  0
LINE
  8
LC-003-002-----0
 62
     1
  6
CONTINUOUS
 10
1211.990234
 20
800.103149
 11
1238.968994
 21
800.103149
  0
LINE
  8
LC-006-012-----0
 62
     2
  6
DASHED
 10
1046.990234
 20
800.103149
 11
1211.990234
 21
800.103149
  0
LINE
  8
LC-006-012-----0
 62
     2
  6
DASHED
 10
1046.990234
 20
880.103149
 11
1211.990234
 21
880.103149
  0
LINE
  8
LC-004-006-----0
 62
     2
  6
DASHDOT
 10
812.097839
 20
925.633545
 11
812.097839
 21
849.159546
  0
LINE
  8
LC-006-012-----0
 62
     2
  6
DASHED
 10
840.561584
 20
883.103149
 11
835.161133
 21
883.103149
  0
LINE
  8
LC-003-002-----0
 62
     1
  6
CONTINUOUS
 10
835.161133
 20
883.103149
 11
791.493896
 21
883.103149
  0
LINE
  8
LC-006-012-----0
 62
     2
  6
DASHED
 10
837.685181
 20
880.103149
 11
832.397217
 21
880.103149
  0
LINE
  8
LC-003-002-----0
 62
     1
  6
CONTINUOUS
 10
832.397217
 20
880.103149
 11
791.231445
 21
880.103149
  0
LINE
  8
LC-003-002-----0
 62
     1
  6
CONTINUOUS
 10
791.493896
 20
883.103149
 11
793.791504
 21
909.364624
  0
LINE
  8
LC-003-002-----0
 62
     1
  6
CONTINUOUS
 10
818.097839
 20
883.103149
 11
818.097839
 21
880.103149
  0
LINE
  8
LC-003-002-----0
 62
     1
  6
CONTINUOUS
 10
806.097839
 20
883.103149
 11
806.097839
 21
880.103149
  0
LINE
  8
LC-001-150-----0
 62
     2
  6
CONTINUOUS
 10
817.097839
 20
883.103149
 11
817.097839
 21
880.103149
  0
LINE
  8
LC-001-150-----0
 62
     2
  6
CONTINUOUS
 10
807.097839
 20
883.103149
 11
807.097839
 21
880.103149
  0
LINE
  8
LC-003-002-----0
 62
     1
  6
CONTINUOUS
 10
1118.520630
 20
918.853149
 11
1118.520630
 21
912.703125
  0
ARC
  8
LC-003-002-----0
 62
     1
  6
CONTINUOUS
 10
1121.263062
 20
914.214233
 40
5.388889
 50
59.409306
 51
120.590692
  0
LINE
  8
LC-003-002-----0
 62
     1
  6
CONTINUOUS
 10
1124.005371
 20
918.853149
 11
1124.005371
 21
912.703125
  0
ARC
  8
LC-003-002-----0
 62
     1
  6
CONTINUOUS
 10
1129.490234
 20
899.172546
 40
20.430555
 50
74.427226
 51
105.572772
  0
LINE
  8
LC-003-002-----0
 62
     1
  6
CONTINUOUS
 10
1134.975098
 20
918.853149
 11
1134.975098
 21
912.703125
  0
LINE
  8
LC-003-002-----0
 62
     1
  6
CONTINUOUS
 10
1140.459961
 20
918.853149
 11
1140.459961
 21
912.703125
  0
ARC
  8
LC-003-002-----0
 62
     1
  6
CONTINUOUS
 10
1137.717529
 20
914.214233
 40
5.388889
 50
59.409306
 51
120.590692
  0
LINE
  8
LC-003-002-----0
 62
     1
  6
CONTINUOUS
 10
1137.717529
 20
919.603149
 11
1121.263062
 21
919.603149
  0
LINE
  8
LC-003-002-----0
 62
     1
  6
CONTINUOUS
 10
1140.459961
 20
912.703125
 11
1118.520630
 21
912.703125
  0
LINE
  8
LC-003-002-----0
 62
     1
  6
CONTINUOUS
 10
1139.211304
 20
912.703125
 11
1139.211304
 21
912.103149
  0
LINE
  8
LC-003-002-----0
 62
     1
  6
CONTINUOUS
 10
1119.769287
 20
912.703125
 11
1119.769287
 21
912.103149
  0
LINE
  8
LC-003-002-----0
 62
     1
  6
CONTINUOUS
 10
1139.211304
 20
912.103149
 11
1119.769287
 21
912.103149
  0
LINE
  8
LC-003-002-----0
 62
     1
  6
CONTINUOUS
 10
1135.490234
 20
883.103149
 11
1135.490234
 21
880.103149
  0
LINE
  8
LC-003-002-----0
 62
     1
  6
CONTINUOUS
 10
1123.490234
 20
883.103149
 11
1123.490234
 21
880.103149
  0
LINE
  8
LC-001-150-----0
 62
     2
  6
CONTINUOUS
 10
1134.490234
 20
883.103149
 11
1134.490234
 21
880.103149
  0
LINE
  8
LC-001-150-----0
 62
     2
  6
CONTINUOUS
 10
1124.490234
 20
883.103149
 11
1124.490234
 21
880.103149
  0
LINE
  8
LC-003-002-----0
 62
     1
  6
CONTINUOUS
 10
1191.990234
 20
883.103149
 11
1066.990234
 21
883.103149
  0
LINE
  8
LC-003-002-----0
 62
     1
  6
CONTINUOUS
 10
1191.990234
 20
880.103149
 11
1066.990234
 21
880.103149
  0
LINE
  8
LC-003-002-----0
 62
     1
  6
CONTINUOUS
 10
1099.490234
 20
883.103149
 11
1099.490234
 21
927.103149
  0
LINE
  8
LC-003-002-----0
 62
     1
  6
CONTINUOUS
 10
1159.490234
 20
883.103149
 11
1159.490234
 21
927.103149
  0
LINE
  8
LC-003-002-----0
 62
     1
  6
CONTINUOUS
 10
801.128235
 20
918.853149
 11
801.128235
 21
912.703125
  0
ARC
  8
LC-003-002-----0
 62
     1
  6
CONTINUOUS
 10
803.870605
 20
914.214233
 40
5.388889
 50
59.409306
 51
120.590692
  0
LINE
  8
LC-003-002-----0
 62
     1
  6
CONTINUOUS
 10
806.613037
 20
918.853149
 11
806.613037
 21
912.703125
  0
ARC
  8
LC-003-002-----0
 62
     1
  6
CONTINUOUS
 10
812.097839
 20
899.172546
 40
20.430555
 50
74.427226
 51
105.572772
  0
LINE
  8
LC-003-002-----0
 62
     1
  6
CONTINUOUS
 10
817.582703
 20
918.853149
 11
817.582703
 21
912.703125
  0
LINE
  8
LC-003-002-----0
 62
     1
  6
CONTINUOUS
 10
823.067505
 20
918.853149
 11
823.067505
 21
912.703125
  0
ARC
  8
LC-003-002-----0
 62
     1
  6
CONTINUOUS
 10
820.325134
 20
914.214233
 40
5.388889
 50
59.409306
 51
120.590692
  0
LINE
  8
LC-003-002-----0
 62
     1
  6
CONTINUOUS
 10
820.325134
 20
919.603149
 11
803.870605
 21
919.603149
  0
LINE
  8
LC-003-002-----0
 62
     1
  6
CONTINUOUS
 10
823.067505
 20
912.703125
 11
801.128235
 21
912.703125
  0
LINE
  8
LC-003-002-----0
 62
     1
  6
CONTINUOUS
 10
821.818848
 20
912.703125
 11
821.818848
 21
912.103149
  0
LINE
  8
LC-003-002-----0
 62
     1
  6
CONTINUOUS
 10
802.376831
 20
912.703125
 11
802.376831
 21
912.103149
  0
LINE
  8
LC-003-002-----0
 62
     1
  6
CONTINUOUS
 10
821.818848
 20
912.103149
 11
802.376831
 21
912.103149
  0
ENDSEC
  0
EOF
