  0
SECTION
  2
HEADER
  9
$LIMMIN
 10
-113.311638
 20
540.466858
  9
$LIMMAX
 10
27.705557
 20
672.234985
  9
$EXTMIN
 10
-113.311638
 20
540.466858
  9
$EXTMAX
 10
27.705557
 20
672.234985
  0
ENDSEC
  0
SECTION
  2
TABLES
  0
TABLE
  2
LTYPE
 70
     3
  0
LTYPE
  2
CONTINUOUS
 70
    64
  3
Ausgezogene Linie
 72
    65
 73
     0
 40
0.0
  0
LTYPE
  2
DASHED
 70
    64
  3
__ __ __ __ __ __ __ __ __ __ __ __ __ __ __
 72
    65
 73
     2
 40
0.75
 49
0.5
 49
-0.25
  0
LTYPE
  2
DASHDOT
 70
    64
  3
__ . __ . __ . __ . __ . __ . __ . __ . __ . __
 72
    65
 73
     4
 40
1.0
 49
0.5
 49
-0.25
 49
0.0
 49
-0.25
  0
ENDTAB
  0
TABLE
  2
LAYER
 70
     5
  0
LAYER
  2
LC-INFO-1-1-MM-A0-0
 70
    64
 62
     7
  6
CONTINUOUS
  0
LAYER
  2
LC-001-150-----0
 70
    64
 62
     7
  6
CONTINUOUS
  0
LAYER
  2
LC-002-021-SLN-3
 70
    64
 62
     7
  6
CONTINUOUS
  0
LAYER
  2
LC-003-002-----0
 70
    64
 62
     7
  6
CONTINUOUS
  0
LAYER
  2
LC-004-006-----0
 70
    64
 62
     7
  6
CONTINUOUS
  0
ENDTAB
  0
TABLE
  2
STYLE
 70
     1
  0
STYLE
  2
TXT8
 70
    64
 40
0.0
 41
1.0
 50
0.0
 71
     0
 42
3.500000
  3
TXT8
  4

  0
ENDTAB
  0
ENDSEC
  0
SECTION
  2
BLOCKS
  0
ENDSEC
  0
SECTION
  2
ENTITIES
  0
ARC
  8
LC-003-002-----0
 62
     7
  6
DASHED
 10
-0.244466
 20
656.620667
 40
6.469085
 50
231.777774
 51
269.977779
  0
ARC
  8
LC-003-002-----0
 62
     7
  6
DASHED
 10
-0.249484
 20
656.620667
 40
6.469085
 50
270.022223
 51
308.222231
  0
LINE
  8
LC-001-150-----0
 62
     1
  6
CONTINUOUS
 10
-84.991035
 20
661.363220
 11
-81.844437
 21
665.248962
  0
LINE
  8
LC-001-150-----0
 62
     1
  6
CONTINUOUS
 10
-92.542885
 20
661.363220
 11
-95.689484
 21
665.248962
  0
ARC
  8
LC-001-150-----0
 62
     1
  6
CONTINUOUS
 10
-88.766960
 20
656.700378
 40
17.000000
 50
15.160792
 51
51.000001
  0
CIRCLE
  8
LC-001-150-----0
 62
     1
  6
CONTINUOUS
 10
-88.766960
 20
656.700378
 40
6.000000
  0
ARC
  8
LC-001-150-----0
 62
     1
  6
CONTINUOUS
 10
-88.766960
 20
656.700378
 40
15.000000
 50
128.999993
 51
51.000001
  0
ARC
  8
LC-001-150-----0
 62
     1
  6
CONTINUOUS
 10
-88.766960
 20
656.700378
 40
11.000000
 50
128.999993
 51
51.000001
  0
ARC
  8
LC-001-150-----0
 62
     1
  6
CONTINUOUS
 10
-88.766960
 20
656.700378
 40
10.000000
 50
128.999993
 51
51.000001
  0
LINE
  8
LC-001-150-----0
 62
     1
  6
CONTINUOUS
 10
-99.465408
 20
669.911865
 11
-106.517502
 21
669.911865
  0
ARC
  8
LC-001-150-----0
 62
     1
  6
CONTINUOUS
 10
-106.517502
 20
668.911865
 40
1.000000
 50
90.000003
 51
175.000006
  0
LINE
  8
LC-001-150-----0
 62
     1
  6
CONTINUOUS
 10
-95.689484
 20
665.248962
 11
-99.465408
 21
669.911865
  0
LINE
  8
LC-001-150-----0
 62
     1
  6
CONTINUOUS
 10
-81.844437
 20
665.248962
 11
-78.068512
 21
669.911865
  0
LINE
  8
LC-001-150-----0
 62
     1
  6
CONTINUOUS
 10
-99.465408
 20
579.398865
 11
-99.465408
 21
559.398865
  0
ARC
  8
LC-001-150-----0
 62
     1
  6
CONTINUOUS
 10
-9.246975
 20
668.911865
 40
1.000000
 50
90.000003
 51
180.000009
  0
ARC
  8
LC-001-150-----0
 62
     1
  6
CONTINUOUS
 10
8.753025
 20
668.911865
 40
1.000000
 50
0.000000
 51
90.000003
  0
LINE
  8
LC-001-150-----0
 62
     1
  6
CONTINUOUS
 10
-78.068512
 20
579.398865
 11
-78.068512
 21
559.398865
  0
LINE
  8
LC-001-150-----0
 62
     1
  6
CONTINUOUS
 10
-92.542885
 20
585.398865
 11
-92.542885
 21
553.398865
  0
LINE
  8
LC-001-150-----0
 62
     1
  6
CONTINUOUS
 10
-84.991035
 20
585.398865
 11
-84.991035
 21
553.398865
  0
LINE
  8
LC-001-150-----0
 62
     1
  6
CONTINUOUS
 10
-95.689484
 20
579.398865
 11
-95.689484
 21
559.398865
  0
LINE
  8
LC-001-150-----0
 62
     1
  6
CONTINUOUS
 10
-81.844437
 20
579.398865
 11
-81.844437
 21
559.398865
  0
LINE
  8
LC-001-150-----0
 62
     1
  6
CONTINUOUS
 10
-102.766960
 20
579.398865
 11
-95.689484
 21
579.398865
  0
LINE
  8
LC-001-150-----0
 62
     1
  6
CONTINUOUS
 10
-81.844437
 20
579.398865
 11
-74.766960
 21
579.398865
  0
LINE
  8
LC-001-150-----0
 62
     1
  6
CONTINUOUS
 10
-102.766960
 20
559.398865
 11
-95.689484
 21
559.398865
  0
LINE
  8
LC-001-150-----0
 62
     1
  6
CONTINUOUS
 10
-81.844437
 20
559.398865
 11
-74.766960
 21
559.398865
  0
LINE
  8
LC-001-150-----0
 62
     1
  6
CONTINUOUS
 10
-109.766960
 20
573.398865
 11
-99.465408
 21
573.398865
  0
LINE
  8
LC-001-150-----0
 62
     1
  6
CONTINUOUS
 10
-78.068512
 20
573.398865
 11
-67.766960
 21
573.398865
  0
LINE
  8
LC-001-150-----0
 62
     1
  6
CONTINUOUS
 10
-109.766960
 20
565.398865
 11
-99.465408
 21
565.398865
  0
LINE
  8
LC-001-150-----0
 62
     1
  6
CONTINUOUS
 10
-78.068512
 20
565.398865
 11
-67.766960
 21
565.398865
  0
ARC
  8
LC-001-150-----0
 62
     1
  6
CONTINUOUS
 10
-108.766960
 20
584.398865
 40
1.000000
 50
90.000003
 51
180.000009
  0
LINE
  8
LC-001-150-----0
 62
     1
  6
CONTINUOUS
 10
-109.766960
 20
584.398865
 11
-109.766960
 21
554.398865
  0
LINE
  8
LC-001-150-----0
 62
     1
  6
CONTINUOUS
 10
9.753025
 20
645.200378
 11
9.753025
 21
668.911865
  0
LINE
  8
LC-003-002-----0
 62
     2
  6
DASHED
 10
-95.689484
 20
579.398865
 11
-81.844437
 21
579.398865
  0
LINE
  8
LC-003-002-----0
 62
     2
  6
DASHED
 10
-95.689484
 20
559.398865
 11
-81.844437
 21
559.398865
  0
LINE
  8
LC-001-150-----0
 62
     1
  6
CONTINUOUS
 10
-10.246975
 20
645.200378
 11
-10.246975
 21
668.911865
  0
LINE
  8
LC-001-150-----0
 62
     1
  6
CONTINUOUS
 10
-67.766960
 20
638.700378
 11
-67.766960
 21
643.200378
  0
LINE
  8
LC-001-150-----0
 62
     1
  6
CONTINUOUS
 10
-109.766960
 20
638.700378
 11
-67.766960
 21
638.700378
  0
LINE
  8
LC-001-150-----0
 62
     1
  6
CONTINUOUS
 10
-108.766960
 20
644.200378
 11
-99.891258
 21
644.200378
  0
LINE
  8
LC-001-150-----0
 62
     1
  6
CONTINUOUS
 10
-109.766960
 20
638.700378
 11
-109.766960
 21
643.200378
  0
LINE
  8
LC-002-021-SLN-3
 62
     2
  6
DASHDOT
 10
-88.766960
 20
637.017639
 11
-88.766960
 21
672.234985
  0
LINE
  8
LC-002-021-SLN-3
 62
     2
  6
DASHDOT
 10
-106.288292
 20
656.700378
 11
-68.551659
 21
656.700378
  0
ARC
  8
LC-001-150-----0
 62
     1
  6
CONTINUOUS
 10
-108.766960
 20
643.200378
 40
1.000000
 50
90.000003
 51
180.000009
  0
LINE
  8
LC-001-150-----0
 62
     1
  6
CONTINUOUS
 10
-16.246975
 20
638.700378
 11
15.753025
 21
638.700378
  0
LINE
  8
LC-001-150-----0
 62
     1
  6
CONTINUOUS
 10
-67.798576
 20
643.449829
 11
-69.537537
 21
650.200378
  0
LINE
  8
LC-001-150-----0
 62
     1
  6
CONTINUOUS
 10
15.753025
 20
638.700378
 11
15.753025
 21
643.200378
  0
LINE
  8
LC-001-150-----0
 62
     1
  6
CONTINUOUS
 10
-16.246975
 20
638.700378
 11
-16.246975
 21
643.200378
  0
LINE
  8
LC-001-150-----0
 62
     1
  6
CONTINUOUS
 10
-109.763153
 20
643.287537
 11
-107.513695
 21
668.999023
  0
ARC
  8
LC-001-150-----0
 62
     1
  6
CONTINUOUS
 10
-68.766960
 20
643.200378
 40
1.000000
 50
0.000000
 51
90.000003
  0
LINE
  8
LC-001-150-----0
 62
     1
  6
CONTINUOUS
 10
-15.246975
 20
644.200378
 11
14.753025
 21
644.200378
  0
LINE
  8
LC-001-150-----0
 62
     1
  6
CONTINUOUS
 10
-77.642662
 20
644.200378
 11
-68.766960
 21
644.200378
  0
ARC
  8
LC-001-150-----0
 62
     1
  6
CONTINUOUS
 10
-99.891258
 20
645.200378
 40
1.000000
 50
269.999997
 51
45.951375
  0
ARC
  8
LC-001-150-----0
 62
     1
  6
CONTINUOUS
 10
-77.642662
 20
645.200378
 40
1.000000
 50
134.048623
 51
269.999997
  0
LINE
  8
LC-002-021-SLN-3
 62
     2
  6
DASHDOT
 10
-72.766960
 20
637.017639
 11
-72.766960
 21
645.997681
  0
LINE
  8
LC-003-002-----0
 62
     2
  6
DASHED
 10
-70.516960
 20
638.700378
 11
-70.516960
 21
644.200378
  0
LINE
  8
LC-003-002-----0
 62
     2
  6
DASHED
 10
-75.016960
 20
638.700378
 11
-75.016960
 21
644.200378
  0
LINE
  8
LC-002-021-SLN-3
 62
     2
  6
DASHDOT
 10
-104.766960
 20
637.017639
 11
-104.766960
 21
645.997681
  0
LINE
  8
LC-003-002-----0
 62
     2
  6
DASHED
 10
-107.016960
 20
638.700378
 11
-107.016960
 21
644.200378
  0
LINE
  8
LC-003-002-----0
 62
     2
  6
DASHED
 10
-102.516960
 20
638.700378
 11
-102.516960
 21
644.200378
  0
ARC
  8
LC-001-150-----0
 62
     1
  6
CONTINUOUS
 10
-15.246975
 20
643.200378
 40
1.000000
 50
90.000003
 51
180.000009
  0
ARC
  8
LC-001-150-----0
 62
     1
  6
CONTINUOUS
 10
14.753025
 20
643.200378
 40
1.000000
 50
0.000000
 51
90.000003
  0
LINE
  8
LC-002-021-SLN-3
 62
     2
  6
DASHDOT
 10
-0.246975
 20
637.017639
 11
-0.246975
 21
671.351257
  0
LINE
  8
LC-001-150-----0
 62
     1
  6
CONTINUOUS
 10
-108.766960
 20
553.398865
 11
-68.766960
 21
553.398865
  0
LINE
  8
LC-001-150-----0
 62
     1
  6
CONTINUOUS
 10
-67.766960
 20
584.398865
 11
-67.766960
 21
554.398865
  0
ARC
  8
LC-001-150-----0
 62
     1
  6
CONTINUOUS
 10
-11.246975
 20
645.200378
 40
1.000000
 50
269.999997
 51
0.000000
  0
ARC
  8
LC-001-150-----0
 62
     1
  6
CONTINUOUS
 10
10.753025
 20
645.200378
 40
1.000000
 50
180.000009
 51
269.999997
  0
LINE
  8
LC-001-150-----0
 62
     1
  6
CONTINUOUS
 10
3.753025
 20
645.200378
 11
3.753025
 21
668.911865
  0
LINE
  8
LC-001-150-----0
 62
     1
  6
CONTINUOUS
 10
-4.246975
 20
645.200378
 11
-4.246975
 21
668.911865
  0
ARC
  8
LC-001-150-----0
 62
     1
  6
CONTINUOUS
 10
-5.246975
 20
645.200378
 40
1.000000
 50
269.999997
 51
0.000000
  0
ARC
  8
LC-001-150-----0
 62
     1
  6
CONTINUOUS
 10
4.753025
 20
645.200378
 40
1.000000
 50
180.000009
 51
269.999997
  0
ARC
  8
LC-001-150-----0
 62
     1
  6
CONTINUOUS
 10
-3.246975
 20
668.911865
 40
1.000000
 50
90.000003
 51
180.000009
  0
ARC
  8
LC-001-150-----0
 62
     1
  6
CONTINUOUS
 10
2.753025
 20
668.911865
 40
1.000000
 50
0.000000
 51
90.000003
  0
LINE
  8
LC-001-150-----0
 62
     1
  6
CONTINUOUS
 10
8.753025
 20
669.911865
 11
-9.246975
 21
669.911865
  0
LINE
  8
LC-002-021-SLN-3
 62
     2
  6
DASHDOT
 10
-11.746975
 20
637.017639
 11
-11.746975
 21
645.997681
  0
LINE
  8
LC-002-021-SLN-3
 62
     2
  6
DASHDOT
 10
11.253025
 20
637.017639
 11
11.253025
 21
645.997681
  0
LINE
  8
LC-003-002-----0
 62
     2
  6
DASHED
 10
13.503025
 20
638.700378
 11
13.503025
 21
644.200378
  0
LINE
  8
LC-003-002-----0
 62
     2
  6
DASHED
 10
9.003025
 20
638.700378
 11
9.003025
 21
644.200378
  0
LINE
  8
LC-002-021-SLN-3
 62
     2
  6
DASHDOT
 10
-29.387932
 20
656.700378
 11
27.705557
 21
656.700378
  0
LINE
  8
LC-003-002-----0
 62
     2
  6
DASHED
 10
-13.996975
 20
638.700378
 11
-13.996975
 21
644.200378
  0
LINE
  8
LC-003-002-----0
 62
     2
  6
DASHED
 10
-9.496975
 20
638.700378
 11
-9.496975
 21
644.200378
  0
LINE
  8
LC-001-150-----0
 62
     1
  6
CONTINUOUS
 10
-26.578991
 20
662.700378
 11
-16.246975
 21
662.700378
  0
LINE
  8
LC-001-150-----0
 62
     1
  6
CONTINUOUS
 10
-15.746975
 20
665.248962
 11
-10.246975
 21
665.248962
  0
LINE
  8
LC-001-150-----0
 62
     1
  6
CONTINUOUS
 10
-15.746975
 20
645.700378
 11
-10.246975
 21
645.700378
  0
LINE
  8
LC-001-150-----0
 62
     1
  6
CONTINUOUS
 10
15.753025
 20
646.200378
 11
15.753025
 21
664.748962
  0
LINE
  8
LC-001-150-----0
 62
     1
  6
CONTINUOUS
 10
-16.246975
 20
646.200378
 11
-16.246975
 21
664.748962
  0
ARC
  8
LC-001-150-----0
 62
     1
  6
CONTINUOUS
 10
-15.746975
 20
664.748962
 40
0.500000
 50
90.000003
 51
180.000009
  0
ARC
  8
LC-001-150-----0
 62
     1
  6
CONTINUOUS
 10
-15.746975
 20
646.200378
 40
0.500000
 50
180.000009
 51
269.999997
  0
ARC
  8
LC-001-150-----0
 62
     1
  6
CONTINUOUS
 10
15.253025
 20
646.200378
 40
0.500000
 50
269.999997
 51
0.000000
  0
ARC
  8
LC-001-150-----0
 62
     1
  6
CONTINUOUS
 10
15.253025
 20
664.748962
 40
0.500000
 50
0.000000
 51
90.000003
  0
LINE
  8
LC-003-002-----0
 62
     2
  6
DASHED
 10
-10.246975
 20
665.248962
 11
9.753025
 21
665.248962
  0
LINE
  8
LC-001-150-----0
 62
     1
  6
CONTINUOUS
 10
9.753025
 20
665.248962
 11
15.253025
 21
665.248962
  0
LINE
  8
LC-003-002-----0
 62
     2
  6
DASHED
 10
-10.246975
 20
645.700378
 11
9.753025
 21
645.700378
  0
LINE
  8
LC-001-150-----0
 62
     1
  6
CONTINUOUS
 10
9.753025
 20
645.700378
 11
15.253025
 21
645.700378
  0
LINE
  8
LC-004-006-----0
 62
     2
  6
CONTINUOUS
 10
25.222202
 20
650.700378
 11
25.684061
 21
655.923584
  0
LINE
  8
LC-004-006-----0
 62
     2
  6
CONTINUOUS
 10
25.684061
 20
655.923584
 11
24.964985
 21
662.700378
  0
LINE
  8
LC-004-006-----0
 62
     2
  6
CONTINUOUS
 10
-26.037289
 20
650.700378
 11
-26.447577
 21
656.062134
  0
LINE
  8
LC-004-006-----0
 62
     2
  6
CONTINUOUS
 10
-26.447577
 20
656.062134
 11
-26.578991
 21
662.700378
  0
LINE
  8
LC-003-002-----0
 62
     2
  6
DASHED
 10
-16.246975
 20
662.700378
 11
15.753025
 21
662.700378
  0
LINE
  8
LC-001-150-----0
 62
     1
  6
CONTINUOUS
 10
-26.037289
 20
650.700378
 11
-16.246975
 21
650.700378
  0
LINE
  8
LC-003-002-----0
 62
     2
  6
DASHED
 10
-16.246975
 20
650.700378
 11
15.753025
 21
650.700378
  0
LINE
  8
LC-001-150-----0
 62
     1
  6
CONTINUOUS
 10
15.753025
 20
650.700378
 11
25.222202
 21
650.700378
  0
LINE
  8
LC-001-150-----0
 62
     1
  6
CONTINUOUS
 10
15.753025
 20
662.700378
 11
24.964985
 21
662.700378
  0
LINE
  8
LC-001-150-----0
 62
     1
  6
CONTINUOUS
 10
-108.766960
 20
585.398865
 11
-68.766960
 21
585.398865
  0
ARC
  8
LC-001-150-----0
 62
     1
  6
CONTINUOUS
 10
-108.766960
 20
554.398865
 40
1.000000
 50
180.000009
 51
269.999997
  0
ARC
  8
LC-001-150-----0
 62
     1
  6
CONTINUOUS
 10
-68.766960
 20
554.398865
 40
1.000000
 50
269.999997
 51
0.000000
  0
ARC
  8
LC-001-150-----0
 62
     1
  6
CONTINUOUS
 10
-68.766960
 20
584.398865
 40
1.000000
 50
0.000000
 51
90.000003
  0
LINE
  8
LC-002-021-SLN-3
 62
     2
  6
DASHDOT
 10
-113.311638
 20
569.398865
 11
-66.037010
 21
569.398865
  0
LINE
  8
LC-001-150-----0
 62
     1
  6
CONTINUOUS
 10
-107.513695
 20
572.398865
 11
-107.513695
 21
566.398865
  0
ARC
  8
LC-001-150-----0
 62
     1
  6
CONTINUOUS
 10
-106.513695
 20
566.398865
 40
1.000000
 50
180.000009
 51
269.999997
  0
ARC
  8
LC-001-150-----0
 62
     1
  6
CONTINUOUS
 10
-106.513695
 20
572.398865
 40
1.000000
 50
90.000003
 51
180.000009
  0
LINE
  8
LC-001-150-----0
 62
     1
  6
CONTINUOUS
 10
-103.766960
 20
578.398865
 11
-103.766960
 21
574.398865
  0
LINE
  8
LC-001-150-----0
 62
     1
  6
CONTINUOUS
 10
-73.766960
 20
578.398865
 11
-73.766960
 21
574.398865
  0
ARC
  8
LC-001-150-----0
 62
     1
  6
CONTINUOUS
 10
-102.766960
 20
578.398865
 40
1.000000
 50
90.000003
 51
180.000009
  0
ARC
  8
LC-001-150-----0
 62
     1
  6
CONTINUOUS
 10
-102.766960
 20
560.398865
 40
1.000000
 50
180.000009
 51
269.999997
  0
ARC
  8
LC-001-150-----0
 62
     1
  6
CONTINUOUS
 10
-74.766960
 20
560.398865
 40
1.000000
 50
269.999997
 51
0.000000
  0
ARC
  8
LC-001-150-----0
 62
     1
  6
CONTINUOUS
 10
-74.766960
 20
578.398865
 40
1.000000
 50
0.000000
 51
90.000003
  0
LINE
  8
LC-001-150-----0
 62
     1
  6
CONTINUOUS
 10
-103.766960
 20
564.398865
 11
-103.766960
 21
560.398865
  0
LINE
  8
LC-001-150-----0
 62
     1
  6
CONTINUOUS
 10
-73.766960
 20
564.398865
 11
-73.766960
 21
560.398865
  0
LINE
  8
LC-002-021-SLN-3
 62
     2
  6
DASHDOT
 10
-104.766960
 20
583.849487
 11
-104.766960
 21
577.536194
  0
LINE
  8
LC-002-021-SLN-3
 62
     2
  6
DASHDOT
 10
-107.977119
 20
580.898865
 11
-101.365585
 21
580.898865
  0
CIRCLE
  8
LC-001-150-----0
 62
     1
  6
CONTINUOUS
 10
-104.766960
 20
580.898865
 40
2.250000
  0
LINE
  8
LC-002-021-SLN-3
 62
     2
  6
DASHDOT
 10
-104.766960
 20
554.948242
 11
-104.766960
 21
561.261475
  0
LINE
  8
LC-002-021-SLN-3
 62
     2
  6
DASHDOT
 10
-107.977119
 20
557.898865
 11
-101.365585
 21
557.898865
  0
CIRCLE
  8
LC-001-150-----0
 62
     1
  6
CONTINUOUS
 10
-104.766960
 20
557.898865
 40
2.250000
  0
LINE
  8
LC-002-021-SLN-3
 62
     2
  6
DASHDOT
 10
-72.766960
 20
583.849487
 11
-72.766960
 21
577.536194
  0
LINE
  8
LC-002-021-SLN-3
 62
     2
  6
DASHDOT
 10
-69.556808
 20
580.898865
 11
-76.168343
 21
580.898865
  0
CIRCLE
  8
LC-001-150-----0
 62
     1
  6
CONTINUOUS
 10
-72.766960
 20
580.898865
 40
2.250000
  0
LINE
  8
LC-002-021-SLN-3
 62
     2
  6
DASHDOT
 10
-72.766960
 20
554.948242
 11
-72.766960
 21
561.261475
  0
LINE
  8
LC-002-021-SLN-3
 62
     2
  6
DASHDOT
 10
-69.556808
 20
557.898865
 11
-76.168343
 21
557.898865
  0
CIRCLE
  8
LC-001-150-----0
 62
     1
  6
CONTINUOUS
 10
-72.766960
 20
557.898865
 40
2.250000
  0
LINE
  8
LC-001-150-----0
 62
     1
  6
CONTINUOUS
 10
-99.766960
 20
584.898865
 11
-99.766960
 21
579.398865
  0
LINE
  8
LC-001-150-----0
 62
     1
  6
CONTINUOUS
 10
-77.766960
 20
584.898865
 11
-77.766960
 21
579.398865
  0
LINE
  8
LC-003-002-----0
 62
     2
  6
DASHED
 10
-99.766960
 20
579.398865
 11
-99.766960
 21
559.398865
  0
LINE
  8
LC-001-150-----0
 62
     1
  6
CONTINUOUS
 10
-99.766960
 20
559.398865
 11
-99.766960
 21
553.898865
  0
LINE
  8
LC-003-002-----0
 62
     2
  6
DASHED
 10
-77.766960
 20
579.398865
 11
-77.766960
 21
559.398865
  0
LINE
  8
LC-001-150-----0
 62
     1
  6
CONTINUOUS
 10
-77.766960
 20
559.398865
 11
-77.766960
 21
553.898865
  0
LINE
  8
LC-001-150-----0
 62
     1
  6
CONTINUOUS
 10
-71.566963
 20
660.000366
 11
-71.566963
 21
650.200378
  0
ARC
  8
LC-001-150-----0
 62
     1
  6
CONTINUOUS
 10
-99.266960
 20
553.898865
 40
0.500000
 50
180.000009
 51
269.999997
  0
ARC
  8
LC-001-150-----0
 62
     1
  6
CONTINUOUS
 10
-78.266960
 20
553.898865
 40
0.500000
 50
269.999997
 51
0.000000
  0
ARC
  8
LC-001-150-----0
 62
     1
  6
CONTINUOUS
 10
-78.266960
 20
584.898865
 40
0.500000
 50
0.000000
 51
90.000003
  0
ARC
  8
LC-001-150-----0
 62
     1
  6
CONTINUOUS
 10
-99.266960
 20
584.898865
 40
0.500000
 50
90.000003
 51
180.000009
  0
LINE
  8
LC-004-006-----0
 62
     2
  6
CONTINUOUS
 10
-94.766960
 20
593.658264
 11
-90.862953
 21
593.197693
  0
LINE
  8
LC-004-006-----0
 62
     2
  6
CONTINUOUS
 10
-90.862953
 20
593.197693
 11
-82.766960
 21
594.400085
  0
LINE
  8
LC-004-006-----0
 62
     2
  6
CONTINUOUS
 10
-94.766960
 20
543.094910
 11
-89.829338
 21
542.546509
  0
LINE
  8
LC-004-006-----0
 62
     2
  6
CONTINUOUS
 10
-89.829338
 20
542.546509
 11
-82.766960
 21
543.346130
  0
LINE
  8
LC-001-150-----0
 62
     1
  6
CONTINUOUS
 10
-94.766960
 20
593.658264
 11
-94.766960
 21
585.398865
  0
LINE
  8
LC-003-002-----0
 62
     2
  6
DASHED
 10
-94.766960
 20
585.398865
 11
-94.766960
 21
553.398865
  0
LINE
  8
LC-001-150-----0
 62
     1
  6
CONTINUOUS
 10
-82.766960
 20
594.400085
 11
-82.766960
 21
585.398865
  0
LINE
  8
LC-003-002-----0
 62
     2
  6
DASHED
 10
-82.766960
 20
585.398865
 11
-82.766960
 21
553.398865
  0
LINE
  8
LC-001-150-----0
 62
     1
  6
CONTINUOUS
 10
-94.766960
 20
553.398865
 11
-94.766960
 21
543.094910
  0
LINE
  8
LC-001-150-----0
 62
     1
  6
CONTINUOUS
 10
-82.766960
 20
553.398865
 11
-82.766960
 21
543.346130
  0
LINE
  8
LC-002-021-SLN-3
 62
     2
  6
DASHDOT
 10
-88.766960
 20
595.277344
 11
-88.766960
 21
540.466858
  0
LINE
  8
LC-001-150-----0
 62
     1
  6
CONTINUOUS
 10
-71.566963
 20
650.200378
 11
-69.537537
 21
650.200378
  0
LINE
  8
LC-003-002-----0
 62
     2
  6
DASHED
 10
-72.066963
 20
654.700378
 11
-77.566963
 21
654.700378
  0
LINE
  8
LC-003-002-----0
 62
     2
  6
DASHED
 10
-72.066963
 20
658.700378
 11
-77.566963
 21
658.700378
  0
LINE
  8
LC-003-002-----0
 62
     2
  6
DASHED
 10
-77.316963
 20
654.200378
 11
-72.066963
 21
654.200378
  0
LINE
  8
LC-003-002-----0
 62
     2
  6
DASHED
 10
-72.066963
 20
659.200378
 11
-77.316963
 21
659.200378
  0
LINE
  8
LC-001-150-----0
 62
     1
  6
CONTINUOUS
 10
-69.566963
 20
659.250366
 11
-69.566963
 21
654.150391
  0
LINE
  8
LC-003-002-----0
 62
     2
  6
DASHED
 10
-80.666962
 20
658.200378
 11
-80.666962
 21
655.200378
  0
LINE
  8
LC-003-002-----0
 62
     2
  6
DASHED
 10
-77.566963
 20
654.450378
 11
-77.316963
 21
654.200378
  0
LINE
  8
LC-003-002-----0
 62
     2
  6
DASHED
 10
-77.316963
 20
659.200378
 11
-77.566963
 21
658.950378
  0
LINE
  8
LC-003-002-----0
 62
     2
  6
DASHED
 10
-77.316963
 20
659.200378
 11
-77.316963
 21
654.200378
  0
LINE
  8
LC-001-150-----0
 62
     1
  6
CONTINUOUS
 10
-69.713882
 20
660.000366
 11
-71.566963
 21
660.000366
  0
LINE
  8
LC-001-150-----0
 62
     1
  6
CONTINUOUS
 10
-69.713882
 20
658.500366
 11
-71.566963
 21
658.500366
  0
LINE
  8
LC-003-002-----0
 62
     2
  6
DASHED
 10
-77.566963
 20
658.950378
 11
-77.566963
 21
654.450378
  0
ARC
  8
LC-001-150-----0
 62
     1
  6
CONTINUOUS
 10
-80.666962
 20
656.700378
 40
11.100000
 50
350.667582
 51
9.332418
  0
ARC
  8
LC-001-150-----0
 62
     1
  6
CONTINUOUS
 10
-71.566963
 20
659.250366
 40
1.999103
 50
337.965286
 51
22.034714
  0
LINE
  8
LC-003-002-----0
 62
     2
  6
DASHED
 10
-77.566963
 20
654.950378
 11
-80.416962
 21
654.950378
  0
ARC
  8
LC-001-150-----0
 62
     1
  6
CONTINUOUS
 10
-71.566963
 20
654.150391
 40
1.999103
 50
337.965286
 51
22.034714
  0
LINE
  8
LC-003-002-----0
 62
     2
  6
DASHED
 10
-72.066963
 20
659.200378
 11
-72.066963
 21
654.200378
  0
LINE
  8
LC-003-002-----0
 62
     2
  6
DASHED
 10
-71.566963
 20
654.500366
 11
-72.066963
 21
654.500366
  0
LINE
  8
LC-003-002-----0
 62
     2
  6
DASHED
 10
-71.566963
 20
658.900391
 11
-72.066963
 21
658.900391
  0
LINE
  8
LC-003-002-----0
 62
     2
  6
DASHED
 10
-77.566963
 20
658.450378
 11
-80.416962
 21
658.450378
  0
ARC
  8
LC-003-002-----0
 62
     2
  6
DASHED
 10
-80.416962
 20
655.200378
 40
0.250000
 50
180.000009
 51
269.999997
  0
ARC
  8
LC-003-002-----0
 62
     2
  6
DASHED
 10
-80.416962
 20
658.200378
 40
0.250000
 50
90.000003
 51
180.000009
  0
LINE
  8
LC-003-002-----0
 62
     2
  6
DASHED
 10
-3.106975
 20
658.351563
 11
-0.246975
 21
660.002808
  0
LINE
  8
LC-003-002-----0
 62
     2
  6
DASHED
 10
-0.246975
 20
653.397949
 11
2.613025
 21
655.049133
  0
LINE
  8
LC-003-002-----0
 62
     2
  6
DASHED
 10
-3.106975
 20
655.049133
 11
-3.106975
 21
658.351563
  0
LINE
  8
LC-003-002-----0
 62
     2
  6
DASHED
 10
2.613025
 20
655.049133
 11
2.613025
 21
658.351563
  0
LINE
  8
LC-003-002-----0
 62
     2
  6
DASHED
 10
-0.246975
 20
653.397949
 11
-3.106975
 21
655.049133
  0
LINE
  8
LC-003-002-----0
 62
     2
  6
DASHED
 10
2.613025
 20
658.351563
 11
-0.246975
 21
660.002808
  0
CIRCLE
  8
LC-003-002-----0
 62
     2
  6
DASHED
 10
-0.246975
 20
656.700378
 40
2.860000
  0
LINE
  8
LC-001-150-----0
 62
     1
  6
CONTINUOUS
 10
-69.713882
 20
654.900391
 11
-71.566963
 21
654.900391
  0
LINE
  8
LC-003-002-----0
 62
     2
  6
DASHED
 10
-72.066963
 20
567.398865
 11
-77.566963
 21
567.398865
  0
LINE
  8
LC-003-002-----0
 62
     2
  6
DASHED
 10
-72.066963
 20
571.398865
 11
-77.566963
 21
571.398865
  0
LINE
  8
LC-001-150-----0
 62
     1
  6
CONTINUOUS
 10
-69.566963
 20
571.948853
 11
-69.566963
 21
566.848877
  0
LINE
  8
LC-003-002-----0
 62
     2
  6
DASHED
 10
-77.566963
 20
567.148865
 11
-77.316963
 21
566.898865
  0
LINE
  8
LC-003-002-----0
 62
     2
  6
DASHED
 10
-77.316963
 20
571.898865
 11
-77.566963
 21
571.648865
  0
LINE
  8
LC-001-150-----0
 62
     1
  6
CONTINUOUS
 10
-71.566963
 20
573.398865
 11
-71.566963
 21
565.398865
  0
ARC
  8
LC-003-002-----0
 62
     2
  6
DASHED
 10
-80.416962
 20
570.898865
 40
0.250000
 50
90.000003
 51
180.000009
  0
ARC
  8
LC-003-002-----0
 62
     2
  6
DASHED
 10
-80.416962
 20
567.898865
 40
0.250000
 50
180.000009
 51
269.999997
  0
LINE
  8
LC-003-002-----0
 62
     2
  6
DASHED
 10
-77.566963
 20
571.148865
 11
-80.416962
 21
571.148865
  0
LINE
  8
LC-003-002-----0
 62
     2
  6
DASHED
 10
-71.566963
 20
571.598877
 11
-72.066963
 21
571.598877
  0
LINE
  8
LC-003-002-----0
 62
     2
  6
DASHED
 10
-71.566963
 20
567.198853
 11
-72.066963
 21
567.198853
  0
LINE
  8
LC-003-002-----0
 62
     2
  6
DASHED
 10
-72.066963
 20
571.898865
 11
-72.066963
 21
566.898865
  0
ARC
  8
LC-001-150-----0
 62
     1
  6
CONTINUOUS
 10
-71.566963
 20
566.848877
 40
1.999103
 50
337.965286
 51
22.034714
  0
LINE
  8
LC-003-002-----0
 62
     2
  6
DASHED
 10
-77.566963
 20
567.648865
 11
-80.416962
 21
567.648865
  0
ARC
  8
LC-001-150-----0
 62
     1
  6
CONTINUOUS
 10
-71.566963
 20
571.948853
 40
1.999103
 50
337.965286
 51
22.034714
  0
ARC
  8
LC-001-150-----0
 62
     1
  6
CONTINUOUS
 10
-80.666962
 20
569.398865
 40
11.100000
 50
350.667582
 51
9.332418
  0
LINE
  8
LC-003-002-----0
 62
     2
  6
DASHED
 10
-77.566963
 20
571.648865
 11
-77.566963
 21
567.148865
  0
LINE
  8
LC-001-150-----0
 62
     1
  6
CONTINUOUS
 10
-69.713882
 20
571.198853
 11
-71.566963
 21
571.198853
  0
LINE
  8
LC-001-150-----0
 62
     1
  6
CONTINUOUS
 10
-69.713882
 20
567.598877
 11
-71.566963
 21
567.598877
  0
LINE
  8
LC-001-150-----0
 62
     1
  6
CONTINUOUS
 10
-69.713882
 20
572.698853
 11
-71.566963
 21
572.698853
  0
LINE
  8
LC-001-150-----0
 62
     1
  6
CONTINUOUS
 10
-69.713882
 20
566.098877
 11
-71.566963
 21
566.098877
  0
LINE
  8
LC-003-002-----0
 62
     2
  6
DASHED
 10
-80.666962
 20
570.898865
 11
-80.666962
 21
567.898865
  0
LINE
  8
LC-003-002-----0
 62
     2
  6
DASHED
 10
-77.316963
 20
566.898865
 11
-72.066963
 21
566.898865
  0
LINE
  8
LC-003-002-----0
 62
     2
  6
DASHED
 10
-72.066963
 20
571.898865
 11
-77.316963
 21
571.898865
  0
LINE
  8
LC-003-002-----0
 62
     2
  6
DASHED
 10
-77.316963
 20
571.898865
 11
-77.316963
 21
566.898865
  0
LINE
  8
LC-001-150-----0
 62
     1
  6
CONTINUOUS
 10
-69.713882
 20
653.400391
 11
-71.566963
 21
653.400391
  0
LINE
  8
LC-001-150-----0
 62
     1
  6
CONTINUOUS
 10
-71.566963
 20
658.078430
 11
-72.304413
 21
660.941162
  0
ARC
  8
LC-001-150-----0
 62
     1
  6
CONTINUOUS
 10
-104.766960
 20
574.398865
 40
1.000000
 50
269.999997
 51
0.000000
  0
ARC
  8
LC-001-150-----0
 62
     1
  6
CONTINUOUS
 10
-104.766960
 20
564.398865
 40
1.000000
 50
0.000000
 51
90.000003
  0
ARC
  8
LC-001-150-----0
 62
     1
  6
CONTINUOUS
 10
-72.766960
 20
574.398865
 40
1.000000
 50
180.000009
 51
269.999997
  0
ARC
  8
LC-001-150-----0
 62
     1
  6
CONTINUOUS
 10
-72.766960
 20
564.398865
 40
1.000000
 50
90.000003
 51
180.000009
  0
ENDSEC
  0
EOF
