  0
SECTION
  2
HEADER
  9
$LIMMIN
 10
-125.997658
 20
-101.219681
  9
$LIMMAX
 10
71.402756
 20
101.604294
  9
$EXTMIN
 10
-125.997658
 20
-101.219681
  9
$EXTMAX
 10
71.402756
 20
101.604294
  0
ENDSEC
  0
SECTION
  2
TABLES
  0
TABLE
  2
LTYPE
 70
     3
  0
LTYPE
  2
CONTINUOUS
 70
    64
  3
Ausgezogene Linie
 72
    65
 73
     0
 40
0.0
  0
LTYPE
  2
DASHED
 70
    64
  3
__ __ __ __ __ __ __ __ __ __ __ __ __ __ __
 72
    65
 73
     2
 40
0.75
 49
0.5
 49
-0.25
  0
LTYPE
  2
DASHDOT
 70
    64
  3
__ . __ . __ . __ . __ . __ . __ . __ . __ . __
 72
    65
 73
     4
 40
1.0
 49
0.5
 49
-0.25
 49
0.0
 49
-0.25
  0
ENDTAB
  0
TABLE
  2
LAYER
 70
     5
  0
LAYER
  2
LC-INFO-1-1-MM-A0-0
 70
    64
 62
     7
  6
CONTINUOUS
  0
LAYER
  2
LC-001-150-----0
 70
    64
 62
     7
  6
CONTINUOUS
  0
LAYER
  2
LC-002-021-SLN-3
 70
    64
 62
     7
  6
CONTINUOUS
  0
LAYER
  2
LC-003-002-----0
 70
    64
 62
     7
  6
CONTINUOUS
  0
LAYER
  2
LC-004-006-----0
 70
    64
 62
     7
  6
CONTINUOUS
  0
ENDTAB
  0
TABLE
  2
STYLE
 70
     1
  0
STYLE
  2
TXT8
 70
    64
 40
0.0
 41
1.0
 50
0.0
 71
     0
 42
3.500000
  3
TXT8
  4

  0
ENDTAB
  0
ENDSEC
  0
SECTION
  2
BLOCKS
  0
ENDSEC
  0
SECTION
  2
ENTITIES
  0
ARC
  8
LC-001-150-----0
 62
     1
  6
CONTINUOUS
 10
-73.909172
 20
-55.273457
 40
22.077055
 50
359.871389
 51
7.209677
  0
ARC
  8
LC-001-150-----0
 62
     1
  6
CONTINUOUS
 10
-63.993519
 20
-53.910419
 40
12.069223
 50
6.697725
 51
17.699336
  0
ARC
  8
LC-001-150-----0
 62
     1
  6
CONTINUOUS
 10
-55.287983
 20
-50.986549
 40
2.890177
 50
14.946827
 51
43.804179
  0
ARC
  8
LC-001-150-----0
 62
     1
  6
CONTINUOUS
 10
-53.617565
 20
-49.432373
 40
0.609807
 50
47.055987
 51
87.804438
  0
ARC
  8
LC-001-150-----0
 62
     1
  6
CONTINUOUS
 10
-53.570843
 20
-49.432373
 40
0.609807
 50
92.195567
 51
132.944018
  0
ARC
  8
LC-001-150-----0
 62
     1
  6
CONTINUOUS
 10
-51.900425
 20
-50.986549
 40
2.890177
 50
136.195816
 51
165.053174
  0
ARC
  8
LC-001-150-----0
 62
     1
  6
CONTINUOUS
 10
-43.194889
 20
-53.910419
 40
12.069223
 50
162.300663
 51
173.302281
  0
ARC
  8
LC-001-150-----0
 62
     1
  6
CONTINUOUS
 10
-33.279240
 20
-55.273457
 40
22.077055
 50
172.790317
 51
180.128607
  0
ARC
  8
LC-001-150-----0
 62
     1
  6
CONTINUOUS
 10
-33.279240
 20
-55.372570
 40
22.077055
 50
179.871393
 51
187.209683
  0
ARC
  8
LC-001-150-----0
 62
     1
  6
CONTINUOUS
 10
-43.194889
 20
-56.735607
 40
12.069223
 50
186.697719
 51
197.699337
  0
ARC
  8
LC-001-150-----0
 62
     1
  6
CONTINUOUS
 10
-51.900425
 20
-59.659477
 40
2.890177
 50
194.946826
 51
223.804184
  0
ARC
  8
LC-001-150-----0
 62
     1
  6
CONTINUOUS
 10
-53.570843
 20
-61.213654
 40
0.609807
 50
227.055982
 51
267.804433
  0
ARC
  8
LC-001-150-----0
 62
     1
  6
CONTINUOUS
 10
-53.617565
 20
-61.213654
 40
0.609807
 50
272.195562
 51
312.944013
  0
ARC
  8
LC-001-150-----0
 62
     1
  6
CONTINUOUS
 10
-55.287983
 20
-59.659477
 40
2.890177
 50
316.195821
 51
345.053173
  0
ARC
  8
LC-001-150-----0
 62
     1
  6
CONTINUOUS
 10
-63.993519
 20
-56.735607
 40
12.069223
 50
342.300664
 51
353.302275
  0
ARC
  8
LC-001-150-----0
 62
     1
  6
CONTINUOUS
 10
-73.909172
 20
-55.372570
 40
22.077055
 50
352.790323
 51
0.128611
  0
LINE
  8
LC-001-150-----0
 62
     1
  6
CONTINUOUS
 10
-78.393608
 20
78.481056
 11
-74.643608
 21
84.976250
  0
LINE
  8
LC-001-150-----0
 62
     1
  6
CONTINUOUS
 10
-90.893608
 20
78.481056
 11
-94.643608
 21
84.976250
  0
LINE
  8
LC-001-150-----0
 62
     1
  6
CONTINUOUS
 10
-99.643608
 20
93.636505
 11
-116.033325
 21
93.636505
  0
ARC
  8
LC-001-150-----0
 62
     1
  6
CONTINUOUS
 10
-116.033325
 20
92.136505
 40
1.500000
 50
90.000003
 51
175.000006
  0
ARC
  8
LC-001-150-----0
 62
     1
  6
CONTINUOUS
 10
-84.643608
 20
67.655739
 40
30.000000
 50
14.938708
 51
60.000002
  0
ARC
  8
LC-001-150-----0
 62
     1
  6
CONTINUOUS
 10
-84.643608
 20
67.655739
 40
26.000000
 50
120.000003
 51
60.000002
  0
ARC
  8
LC-001-150-----0
 62
     1
  6
CONTINUOUS
 10
-84.643608
 20
67.655739
 40
20.000000
 50
120.000003
 51
60.000002
  0
ARC
  8
LC-001-150-----0
 62
     1
  6
CONTINUOUS
 10
-84.643608
 20
67.655739
 40
18.000000
 50
120.000003
 51
60.000002
  0
LINE
  8
LC-001-150-----0
 62
     1
  6
CONTINUOUS
 10
-94.643608
 20
84.976250
 11
-99.643608
 21
93.636505
  0
LINE
  8
LC-001-150-----0
 62
     1
  6
CONTINUOUS
 10
-74.643608
 20
84.976250
 11
-69.643608
 21
93.636505
  0
LINE
  8
LC-001-150-----0
 62
     1
  6
CONTINUOUS
 10
-99.643608
 20
93.636505
 11
-104.643608
 21
93.636505
  0
LINE
  8
LC-001-150-----0
 62
     1
  6
CONTINUOUS
 10
-99.643608
 20
-35.323013
 11
-99.643608
 21
-75.323013
  0
LINE
  8
LC-001-150-----0
 62
     1
  6
CONTINUOUS
 10
-69.643608
 20
-35.323013
 11
-69.643608
 21
-75.323013
  0
LINE
  8
LC-001-150-----0
 62
     1
  6
CONTINUOUS
 10
-109.143608
 20
-35.323013
 11
-94.643608
 21
-35.323013
  0
LINE
  8
LC-003-002-----0
 62
     2
  6
DASHED
 10
-94.643608
 20
-35.323013
 11
-74.643608
 21
-35.323013
  0
LINE
  8
LC-001-150-----0
 62
     1
  6
CONTINUOUS
 10
-90.893608
 20
-26.323013
 11
-90.893608
 21
-84.323013
  0
LINE
  8
LC-001-150-----0
 62
     1
  6
CONTINUOUS
 10
-78.393608
 20
-26.323013
 11
-78.393608
 21
-84.323013
  0
LINE
  8
LC-001-150-----0
 62
     1
  6
CONTINUOUS
 10
-121.643608
 20
-47.323013
 11
-99.643608
 21
-47.323013
  0
LINE
  8
LC-001-150-----0
 62
     1
  6
CONTINUOUS
 10
-69.643608
 20
-47.323013
 11
-47.643608
 21
-47.323013
  0
LINE
  8
LC-001-150-----0
 62
     1
  6
CONTINUOUS
 10
-121.643608
 20
-63.323013
 11
-99.643608
 21
-63.323013
  0
LINE
  8
LC-001-150-----0
 62
     1
  6
CONTINUOUS
 10
-69.643608
 20
-63.323013
 11
-47.643608
 21
-63.323013
  0
LINE
  8
LC-001-150-----0
 62
     1
  6
CONTINUOUS
 10
-94.643608
 20
-75.323013
 11
-94.643608
 21
-84.323013
  0
LINE
  8
LC-001-150-----0
 62
     1
  6
CONTINUOUS
 10
-74.643608
 20
-35.323013
 11
-60.143608
 21
-35.323013
  0
LINE
  8
LC-001-150-----0
 62
     1
  6
CONTINUOUS
 10
-94.643608
 20
-26.323013
 11
-94.643608
 21
-35.323013
  0
LINE
  8
LC-001-150-----0
 62
     1
  6
CONTINUOUS
 10
-94.643608
 20
-35.323013
 11
-94.643608
 21
-75.323013
  0
LINE
  8
LC-001-150-----0
 62
     1
  6
CONTINUOUS
 10
-74.643608
 20
-26.323013
 11
-74.643608
 21
-35.323013
  0
LINE
  8
LC-001-150-----0
 62
     1
  6
CONTINUOUS
 10
-74.643608
 20
-35.323013
 11
-74.643608
 21
-75.323013
  0
LINE
  8
LC-001-150-----0
 62
     1
  6
CONTINUOUS
 10
-74.643608
 20
-75.323013
 11
-74.643608
 21
-84.323013
  0
LINE
  8
LC-001-150-----0
 62
     1
  6
CONTINUOUS
 10
-109.143608
 20
-75.323013
 11
-94.643608
 21
-75.323013
  0
LINE
  8
LC-003-002-----0
 62
     2
  6
DASHED
 10
-94.643608
 20
-75.323013
 11
-74.643608
 21
-75.323013
  0
LINE
  8
LC-001-150-----0
 62
     1
  6
CONTINUOUS
 10
-74.643608
 20
-75.323013
 11
-60.143608
 21
-75.323013
  0
LINE
  8
LC-003-002-----0
 62
     2
  6
DASHED
 10
-58.443607
 20
74.155739
 11
-55.356239
 21
74.155739
  0
LINE
  8
LC-001-150-----0
 62
     1
  6
CONTINUOUS
 10
-121.643608
 20
45.155743
 11
-121.643608
 21
37.655743
  0
LINE
  8
LC-001-150-----0
 62
     1
  6
CONTINUOUS
 10
-121.643608
 20
37.655743
 11
-47.643608
 21
37.655743
  0
LINE
  8
LC-001-150-----0
 62
     1
  6
CONTINUOUS
 10
-120.143608
 20
46.655743
 11
-104.034325
 21
46.655743
  0
LINE
  8
LC-001-150-----0
 62
     1
  6
CONTINUOUS
 10
-47.643608
 20
45.155743
 11
-47.643608
 21
37.655743
  0
ARC
  8
LC-001-150-----0
 62
     1
  6
CONTINUOUS
 10
-120.143608
 20
45.155743
 40
1.500000
 50
90.000003
 51
180.000009
  0
ARC
  8
LC-001-150-----0
 62
     1
  6
CONTINUOUS
 10
-49.143608
 20
45.155743
 40
1.500000
 50
0.000000
 51
90.000003
  0
LINE
  8
LC-002-021-SLN-3
 62
     2
  6
DASHDOT
 10
-84.643608
 20
33.081425
 11
-84.643608
 21
101.604294
  0
LINE
  8
LC-002-021-SLN-3
 62
     2
  6
DASHDOT
 10
-54.643608
 20
34.988766
 11
-54.643608
 21
49.985367
  0
LINE
  8
LC-002-021-SLN-3
 62
     2
  6
DASHDOT
 10
-113.591278
 20
67.655739
 11
-51.743198
 21
67.655739
  0
CIRCLE
  8
LC-001-150-----0
 62
     1
  6
CONTINUOUS
 10
-84.643608
 20
67.655739
 40
12.500000
  0
LINE
  8
LC-001-150-----0
 62
     1
  6
CONTINUOUS
 10
-47.694305
 20
45.542419
 11
-55.657543
 21
75.389313
  0
LINE
  8
LC-001-150-----0
 62
     1
  6
CONTINUOUS
 10
-121.637901
 20
45.286476
 11
-117.527618
 21
92.267235
  0
LINE
  8
LC-003-002-----0
 62
     2
  6
DASHED
 10
-51.893608
 20
37.655743
 11
-51.893608
 21
46.655743
  0
LINE
  8
LC-003-002-----0
 62
     2
  6
DASHED
 10
-57.393608
 20
37.655743
 11
-57.393608
 21
46.655743
  0
LINE
  8
LC-002-021-SLN-3
 62
     2
  6
DASHDOT
 10
-114.643608
 20
34.988766
 11
-114.643608
 21
49.985367
  0
LINE
  8
LC-003-002-----0
 62
     2
  6
DASHED
 10
-117.393608
 20
37.655743
 11
-117.393608
 21
46.655743
  0
LINE
  8
LC-003-002-----0
 62
     2
  6
DASHED
 10
-111.893608
 20
37.655743
 11
-111.893608
 21
46.655743
  0
LINE
  8
LC-001-150-----0
 62
     1
  6
CONTINUOUS
 10
-65.252892
 20
46.655743
 11
-49.143604
 21
46.655743
  0
ARC
  8
LC-001-150-----0
 62
     1
  6
CONTINUOUS
 10
-104.034325
 20
48.155743
 40
1.500000
 50
269.999997
 51
45.160996
  0
ARC
  8
LC-001-150-----0
 62
     1
  6
CONTINUOUS
 10
-65.252892
 20
48.155743
 40
1.500000
 50
134.838999
 51
269.999997
  0
LINE
  8
LC-001-150-----0
 62
     1
  6
CONTINUOUS
 10
-5.487511
 20
37.655743
 11
48.512489
 21
37.655743
  0
LINE
  8
LC-001-150-----0
 62
     1
  6
CONTINUOUS
 10
48.512489
 20
37.655743
 11
48.512489
 21
45.155743
  0
LINE
  8
LC-002-021-SLN-3
 62
     2
  6
DASHDOT
 10
21.512489
 20
33.081425
 11
21.512489
 21
96.597122
  0
LINE
  8
LC-001-150-----0
 62
     1
  6
CONTINUOUS
 10
-5.487511
 20
37.655743
 11
-5.487511
 21
45.155743
  0
LINE
  8
LC-001-150-----0
 62
     1
  6
CONTINUOUS
 10
-3.987511
 20
46.655743
 11
47.012489
 21
46.655743
  0
ARC
  8
LC-001-150-----0
 62
     1
  6
CONTINUOUS
 10
-3.987511
 20
45.155743
 40
1.500000
 50
90.000003
 51
180.000009
  0
ARC
  8
LC-001-150-----0
 62
     1
  6
CONTINUOUS
 10
47.012489
 20
45.155743
 40
1.500000
 50
0.000000
 51
90.000003
  0
LINE
  8
LC-001-150-----0
 62
     1
  6
CONTINUOUS
 10
41.512489
 20
48.155743
 11
41.512489
 21
92.155739
  0
LINE
  8
LC-001-150-----0
 62
     1
  6
CONTINUOUS
 10
1.512489
 20
48.155743
 11
1.512489
 21
92.155739
  0
ARC
  8
LC-001-150-----0
 62
     1
  6
CONTINUOUS
 10
3.012489
 20
92.155739
 40
1.500000
 50
90.000003
 51
180.000009
  0
ARC
  8
LC-001-150-----0
 62
     1
  6
CONTINUOUS
 10
40.012489
 20
92.155739
 40
1.500000
 50
0.000000
 51
90.000003
  0
ARC
  8
LC-001-150-----0
 62
     1
  6
CONTINUOUS
 10
0.012489
 20
48.155743
 40
1.500000
 50
269.999997
 51
0.000000
  0
ARC
  8
LC-001-150-----0
 62
     1
  6
CONTINUOUS
 10
43.012489
 20
48.155743
 40
1.500000
 50
180.000009
 51
269.999997
  0
LINE
  8
LC-001-150-----0
 62
     1
  6
CONTINUOUS
 10
29.512489
 20
48.155743
 11
29.512489
 21
92.155739
  0
LINE
  8
LC-001-150-----0
 62
     1
  6
CONTINUOUS
 10
13.512489
 20
48.155743
 11
13.512489
 21
92.155739
  0
ARC
  8
LC-001-150-----0
 62
     1
  6
CONTINUOUS
 10
12.012489
 20
48.155743
 40
1.500000
 50
269.999997
 51
0.000000
  0
ARC
  8
LC-001-150-----0
 62
     1
  6
CONTINUOUS
 10
31.012489
 20
48.155743
 40
1.500000
 50
180.000009
 51
269.999997
  0
LINE
  8
LC-001-150-----0
 62
     1
  6
CONTINUOUS
 10
3.012489
 20
93.655739
 11
40.012489
 21
93.655739
  0
ARC
  8
LC-001-150-----0
 62
     1
  6
CONTINUOUS
 10
15.012489
 20
92.155739
 40
1.500000
 50
90.000003
 51
180.000009
  0
ARC
  8
LC-001-150-----0
 62
     1
  6
CONTINUOUS
 10
28.012489
 20
92.155739
 40
1.500000
 50
0.000000
 51
90.000003
  0
LINE
  8
LC-002-021-SLN-3
 62
     2
  6
DASHDOT
 10
1.512489
 20
34.988766
 11
1.512489
 21
49.985367
  0
LINE
  8
LC-002-021-SLN-3
 62
     2
  6
DASHDOT
 10
41.512489
 20
34.988766
 11
41.512489
 21
49.985367
  0
LINE
  8
LC-003-002-----0
 62
     2
  6
DASHED
 10
44.262489
 20
37.655743
 11
44.262489
 21
46.655743
  0
LINE
  8
LC-003-002-----0
 62
     2
  6
DASHED
 10
38.762489
 20
37.655743
 11
38.762489
 21
46.655743
  0
LINE
  8
LC-001-150-----0
 62
     1
  6
CONTINUOUS
 10
-6.237511
 20
47.655743
 11
1.512489
 21
47.655743
  0
LINE
  8
LC-003-002-----0
 62
     2
  6
DASHED
 10
-1.237511
 20
37.655743
 11
-1.237511
 21
46.655743
  0
LINE
  8
LC-003-002-----0
 62
     2
  6
DASHED
 10
4.262489
 20
37.655743
 11
4.262489
 21
46.655743
  0
LINE
  8
LC-001-150-----0
 62
     1
  6
CONTINUOUS
 10
-6.237511
 20
84.976250
 11
1.512489
 21
84.976250
  0
LINE
  8
LC-001-150-----0
 62
     1
  6
CONTINUOUS
 10
50.512489
 20
48.905743
 11
50.512489
 21
83.726250
  0
LINE
  8
LC-001-150-----0
 62
     1
  6
CONTINUOUS
 10
-7.487511
 20
48.905743
 11
-7.487511
 21
83.726250
  0
ARC
  8
LC-001-150-----0
 62
     1
  6
CONTINUOUS
 10
-6.237511
 20
83.726250
 40
1.250000
 50
90.000003
 51
180.000009
  0
ARC
  8
LC-001-150-----0
 62
     1
  6
CONTINUOUS
 10
-6.237511
 20
48.905743
 40
1.250000
 50
180.000009
 51
269.999997
  0
ARC
  8
LC-001-150-----0
 62
     1
  6
CONTINUOUS
 10
49.262489
 20
48.905743
 40
1.250000
 50
269.999997
 51
0.000000
  0
ARC
  8
LC-001-150-----0
 62
     1
  6
CONTINUOUS
 10
49.262489
 20
83.726250
 40
1.250000
 50
0.000000
 51
90.000003
  0
LINE
  8
LC-003-002-----0
 62
     2
  6
DASHED
 10
1.512489
 20
84.976250
 11
41.512489
 21
84.976250
  0
LINE
  8
LC-001-150-----0
 62
     1
  6
CONTINUOUS
 10
41.512489
 20
84.976250
 11
49.262489
 21
84.976250
  0
LINE
  8
LC-001-150-----0
 62
     1
  6
CONTINUOUS
 10
41.512489
 20
47.655743
 11
49.262489
 21
47.655743
  0
LINE
  8
LC-003-002-----0
 62
     2
  6
DASHED
 10
1.512489
 20
47.655743
 11
41.512489
 21
47.655743
  0
LINE
  8
LC-001-150-----0
 62
     1
  6
CONTINUOUS
 10
-23.526630
 20
80.155739
 11
-7.487512
 21
80.155739
  0
LINE
  8
LC-001-150-----0
 62
     1
  6
CONTINUOUS
 10
-24.490751
 20
55.155743
 11
-7.487511
 21
55.155743
  0
LINE
  8
LC-002-021-SLN-3
 62
     2
  6
DASHDOT
 10
-29.676432
 20
67.655739
 11
71.402756
 21
67.655739
  0
LINE
  8
LC-004-006-----0
 62
     2
  6
CONTINUOUS
 10
66.370850
 20
55.155743
 11
68.165009
 21
61.010929
  0
LINE
  8
LC-004-006-----0
 62
     2
  6
CONTINUOUS
 10
68.165009
 20
61.010929
 11
67.080200
 21
73.999420
  0
LINE
  8
LC-004-006-----0
 62
     2
  6
CONTINUOUS
 10
67.080200
 20
73.999420
 11
67.404716
 21
80.155739
  0
LINE
  8
LC-004-006-----0
 62
     2
  6
CONTINUOUS
 10
-24.490751
 20
55.155743
 11
-23.401217
 21
62.132236
  0
LINE
  8
LC-004-006-----0
 62
     2
  6
CONTINUOUS
 10
-23.401217
 20
62.132236
 11
-24.052105
 21
74.640167
  0
LINE
  8
LC-004-006-----0
 62
     2
  6
CONTINUOUS
 10
-24.052105
 20
74.640167
 11
-23.526630
 21
80.155739
  0
LINE
  8
LC-003-002-----0
 62
     2
  6
DASHED
 10
-7.487511
 20
80.155739
 11
50.512489
 21
80.155739
  0
LINE
  8
LC-003-002-----0
 62
     2
  6
DASHED
 10
-7.487511
 20
55.155743
 11
50.512489
 21
55.155743
  0
LINE
  8
LC-001-150-----0
 62
     1
  6
CONTINUOUS
 10
50.512489
 20
55.155743
 11
66.370850
 21
55.155743
  0
LINE
  8
LC-001-150-----0
 62
     1
  6
CONTINUOUS
 10
50.512489
 20
80.155739
 11
67.404716
 21
80.155739
  0
LINE
  8
LC-001-150-----0
 62
     1
  6
CONTINUOUS
 10
-121.643608
 20
-29.823013
 11
-121.643608
 21
-80.823013
  0
LINE
  8
LC-001-150-----0
 62
     1
  6
CONTINUOUS
 10
-120.143608
 20
-82.323013
 11
-104.643608
 21
-82.323013
  0
LINE
  8
LC-001-150-----0
 62
     1
  6
CONTINUOUS
 10
-47.643608
 20
-29.823013
 11
-47.643608
 21
-80.823013
  0
LINE
  8
LC-001-150-----0
 62
     1
  6
CONTINUOUS
 10
-120.143608
 20
-28.323013
 11
-104.643608
 21
-28.323013
  0
ARC
  8
LC-001-150-----0
 62
     1
  6
CONTINUOUS
 10
-120.143608
 20
-29.823013
 40
1.500000
 50
90.000003
 51
180.000009
  0
ARC
  8
LC-001-150-----0
 62
     1
  6
CONTINUOUS
 10
-49.143608
 20
-29.823013
 40
1.500000
 50
0.000000
 51
90.000003
  0
ARC
  8
LC-001-150-----0
 62
     1
  6
CONTINUOUS
 10
-49.143608
 20
-80.823013
 40
1.500000
 50
269.999997
 51
0.000000
  0
ARC
  8
LC-001-150-----0
 62
     1
  6
CONTINUOUS
 10
-120.143608
 20
-80.823013
 40
1.500000
 50
180.000009
 51
269.999997
  0
LINE
  8
LC-002-021-SLN-3
 62
     2
  6
DASHDOT
 10
-125.997658
 20
-55.323013
 11
-49.945427
 21
-55.323013
  0
LINE
  8
LC-002-021-SLN-3
 62
     2
  6
DASHDOT
 10
-119.024048
 20
-35.323013
 11
-110.128494
 21
-35.323013
  0
LINE
  8
LC-002-021-SLN-3
 62
     2
  6
DASHDOT
 10
-114.643608
 20
-30.429026
 11
-114.643608
 21
-40.139847
  0
CIRCLE
  8
LC-001-150-----0
 62
     1
  6
CONTINUOUS
 10
-114.643608
 20
-35.323013
 40
2.750000
  0
LINE
  8
LC-002-021-SLN-3
 62
     2
  6
DASHDOT
 10
-119.024048
 20
-75.323013
 11
-110.128494
 21
-75.323013
  0
LINE
  8
LC-002-021-SLN-3
 62
     2
  6
DASHDOT
 10
-114.643608
 20
-80.217003
 11
-114.643608
 21
-70.506180
  0
CIRCLE
  8
LC-001-150-----0
 62
     1
  6
CONTINUOUS
 10
-114.643608
 20
-75.323013
 40
2.750000
  0
LINE
  8
LC-002-021-SLN-3
 62
     2
  6
DASHDOT
 10
-50.263165
 20
-35.323013
 11
-59.158718
 21
-35.323013
  0
LINE
  8
LC-002-021-SLN-3
 62
     2
  6
DASHDOT
 10
-54.643608
 20
-30.429026
 11
-54.643608
 21
-40.139847
  0
CIRCLE
  8
LC-001-150-----0
 62
     1
  6
CONTINUOUS
 10
-54.643608
 20
-35.323013
 40
2.750000
  0
LINE
  8
LC-002-021-SLN-3
 62
     2
  6
DASHDOT
 10
-50.263165
 20
-75.323013
 11
-59.158718
 21
-75.323013
  0
LINE
  8
LC-002-021-SLN-3
 62
     2
  6
DASHDOT
 10
-54.643608
 20
-80.217003
 11
-54.643608
 21
-70.506180
  0
CIRCLE
  8
LC-001-150-----0
 62
     1
  6
CONTINUOUS
 10
-54.643608
 20
-75.323013
 40
2.750000
  0
LINE
  8
LC-001-150-----0
 62
     1
  6
CONTINUOUS
 10
-117.700912
 20
-48.823013
 11
-117.700912
 21
-61.823013
  0
ARC
  8
LC-001-150-----0
 62
     1
  6
CONTINUOUS
 10
-116.200912
 20
-48.823013
 40
1.500000
 50
90.000003
 51
180.000009
  0
ARC
  8
LC-001-150-----0
 62
     1
  6
CONTINUOUS
 10
-116.200912
 20
-61.823013
 40
1.500000
 50
180.000009
 51
269.999997
  0
LINE
  8
LC-001-150-----0
 62
     1
  6
CONTINUOUS
 10
-110.643608
 20
-36.823013
 11
-110.643608
 21
-45.823013
  0
LINE
  8
LC-001-150-----0
 62
     1
  6
CONTINUOUS
 10
-58.643608
 20
-36.823013
 11
-58.643608
 21
-45.823013
  0
ARC
  8
LC-001-150-----0
 62
     1
  6
CONTINUOUS
 10
-109.143608
 20
-36.823013
 40
1.500000
 50
90.000003
 51
180.000009
  0
ARC
  8
LC-001-150-----0
 62
     1
  6
CONTINUOUS
 10
-60.143608
 20
-36.823013
 40
1.500000
 50
0.000000
 51
90.000003
  0
ARC
  8
LC-001-150-----0
 62
     1
  6
CONTINUOUS
 10
-60.143608
 20
-73.823013
 40
1.500000
 50
269.999997
 51
0.000000
  0
ARC
  8
LC-001-150-----0
 62
     1
  6
CONTINUOUS
 10
-109.143608
 20
-73.823013
 40
1.500000
 50
180.000009
 51
269.999997
  0
LINE
  8
LC-001-150-----0
 62
     1
  6
CONTINUOUS
 10
-110.643608
 20
-64.823013
 11
-110.643608
 21
-73.823013
  0
LINE
  8
LC-001-150-----0
 62
     1
  6
CONTINUOUS
 10
-58.643608
 20
-64.823013
 11
-58.643608
 21
-73.823013
  0
LINE
  8
LC-003-002-----0
 62
     2
  6
DASHED
 10
-104.643608
 20
-35.323013
 11
-104.643608
 21
-75.323013
  0
LINE
  8
LC-003-002-----0
 62
     2
  6
DASHED
 10
-64.643608
 20
-35.323013
 11
-64.643608
 21
-75.323013
  0
LINE
  8
LC-001-150-----0
 62
     1
  6
CONTINUOUS
 10
-103.393608
 20
-26.323013
 11
-65.893608
 21
-26.323013
  0
LINE
  8
LC-001-150-----0
 62
     1
  6
CONTINUOUS
 10
-103.393608
 20
-84.323013
 11
-65.893608
 21
-84.323013
  0
ARC
  8
LC-001-150-----0
 62
     1
  6
CONTINUOUS
 10
-103.393608
 20
-27.573013
 40
1.250000
 50
90.000003
 51
180.000009
  0
ARC
  8
LC-001-150-----0
 62
     1
  6
CONTINUOUS
 10
-65.893608
 20
-27.573013
 40
1.250000
 50
0.000000
 51
90.000003
  0
ARC
  8
LC-001-150-----0
 62
     1
  6
CONTINUOUS
 10
-65.893608
 20
-83.073013
 40
1.250000
 50
269.999997
 51
0.000000
  0
ARC
  8
LC-001-150-----0
 62
     1
  6
CONTINUOUS
 10
-103.393608
 20
-83.073013
 40
1.250000
 50
180.000009
 51
269.999997
  0
LINE
  8
LC-003-002-----0
 62
     2
  6
DASHED
 10
-104.643608
 20
-82.323013
 11
-64.643608
 21
-82.323013
  0
LINE
  8
LC-001-150-----0
 62
     1
  6
CONTINUOUS
 10
-64.643608
 20
-82.323013
 11
-49.143608
 21
-82.323013
  0
LINE
  8
LC-003-002-----0
 62
     2
  6
DASHED
 10
-104.643608
 20
-28.323013
 11
-64.643608
 21
-28.323013
  0
LINE
  8
LC-001-150-----0
 62
     1
  6
CONTINUOUS
 10
-64.643608
 20
-28.323013
 11
-49.143608
 21
-28.323013
  0
LINE
  8
LC-001-150-----0
 62
     1
  6
CONTINUOUS
 10
-104.643608
 20
-27.573013
 11
-104.643608
 21
-35.323013
  0
LINE
  8
LC-001-150-----0
 62
     1
  6
CONTINUOUS
 10
-64.643608
 20
-27.573013
 11
-64.643608
 21
-35.323013
  0
LINE
  8
LC-001-150-----0
 62
     1
  6
CONTINUOUS
 10
-64.643608
 20
-83.073013
 11
-64.643608
 21
-75.323013
  0
LINE
  8
LC-001-150-----0
 62
     1
  6
CONTINUOUS
 10
-104.643608
 20
-83.073013
 11
-104.643608
 21
-75.323013
  0
LINE
  8
LC-002-021-SLN-3
 62
     2
  6
DASHDOT
 10
-84.643608
 20
-9.961040
 11
-84.643608
 21
-101.219681
  0
LINE
  8
LC-004-006-----0
 62
     2
  6
CONTINUOUS
 10
-97.143608
 20
-13.233394
 11
-88.523811
 21
-14.015131
  0
LINE
  8
LC-004-006-----0
 62
     2
  6
CONTINUOUS
 10
-88.523811
 20
-14.015131
 11
-77.347870
 21
-12.741919
  0
LINE
  8
LC-004-006-----0
 62
     2
  6
CONTINUOUS
 10
-77.347870
 20
-12.741919
 11
-72.143608
 21
-13.281514
  0
LINE
  8
LC-004-006-----0
 62
     2
  6
CONTINUOUS
 10
-97.143608
 20
-97.412636
 11
-88.523811
 21
-96.630898
  0
LINE
  8
LC-004-006-----0
 62
     2
  6
CONTINUOUS
 10
-88.523811
 20
-96.630898
 11
-77.347870
 21
-97.904106
  0
LINE
  8
LC-004-006-----0
 62
     2
  6
CONTINUOUS
 10
-77.347870
 20
-97.904106
 11
-72.143608
 21
-97.364517
  0
LINE
  8
LC-001-150-----0
 62
     1
  6
CONTINUOUS
 10
-97.143608
 20
-84.323013
 11
-97.143608
 21
-97.412636
  0
LINE
  8
LC-001-150-----0
 62
     1
  6
CONTINUOUS
 10
-72.143608
 20
-84.323013
 11
-72.143608
 21
-97.364517
  0
LINE
  8
LC-001-150-----0
 62
     1
  6
CONTINUOUS
 10
-72.143608
 20
-13.281514
 11
-72.143608
 21
-26.323013
  0
LINE
  8
LC-003-002-----0
 62
     2
  6
DASHED
 10
-72.143608
 20
-26.323013
 11
-72.143608
 21
-84.323013
  0
LINE
  8
LC-001-150-----0
 62
     1
  6
CONTINUOUS
 10
-97.143608
 20
-13.233394
 11
-97.143608
 21
-26.323013
  0
LINE
  8
LC-003-002-----0
 62
     2
  6
DASHED
 10
-97.143608
 20
-26.323013
 11
-97.143608
 21
-84.323013
  0
LINE
  8
LC-003-002-----0
 62
     2
  6
DASHED
 10
-58.443607
 20
61.155743
 11
-51.859985
 21
61.155743
  0
LINE
  8
LC-003-002-----0
 62
     2
  6
DASHED
 10
-58.943607
 20
65.655739
 11
-64.443604
 21
65.655739
  0
ARC
  8
LC-001-150-----0
 62
     1
  6
CONTINUOUS
 10
-112.143608
 20
-45.823013
 40
1.500000
 50
269.999997
 51
0.000000
  0
ARC
  8
LC-001-150-----0
 62
     1
  6
CONTINUOUS
 10
-112.143608
 20
-64.823013
 40
1.500000
 50
0.000000
 51
90.000003
  0
ARC
  8
LC-001-150-----0
 62
     1
  6
CONTINUOUS
 10
-57.143608
 20
-45.823013
 40
1.500000
 50
180.000009
 51
269.999997
  0
ARC
  8
LC-001-150-----0
 62
     1
  6
CONTINUOUS
 10
-57.143608
 20
-64.823013
 40
1.500000
 50
90.000003
 51
180.000009
  0
LINE
  8
LC-003-002-----0
 62
     2
  6
DASHED
 10
-58.943607
 20
69.655739
 11
-64.443604
 21
69.655739
  0
LINE
  8
LC-003-002-----0
 62
     2
  6
DASHED
 10
-64.193604
 20
65.155739
 11
-58.943611
 21
65.155739
  0
LINE
  8
LC-003-002-----0
 62
     2
  6
DASHED
 10
-58.943607
 20
70.155739
 11
-64.193604
 21
70.155739
  0
ARC
  8
LC-003-002-----0
 62
     2
  6
DASHED
 10
-67.293610
 20
69.155739
 40
0.250000
 50
90.000003
 51
180.000009
  0
ARC
  8
LC-003-002-----0
 62
     2
  6
DASHED
 10
-67.293610
 20
66.155739
 40
0.250000
 50
180.000009
 51
269.999997
  0
LINE
  8
LC-003-002-----0
 62
     2
  6
DASHED
 10
-64.443604
 20
69.405739
 11
-67.293610
 21
69.405739
  0
LINE
  8
LC-003-002-----0
 62
     2
  6
DASHED
 10
-58.443607
 20
69.855743
 11
-58.943607
 21
69.855743
  0
LINE
  8
LC-003-002-----0
 62
     2
  6
DASHED
 10
-58.443607
 20
65.455742
 11
-58.943607
 21
65.455742
  0
LINE
  8
LC-003-002-----0
 62
     2
  6
DASHED
 10
-58.943607
 20
70.155739
 11
-58.943607
 21
65.155739
  0
ARC
  8
LC-003-002-----0
 62
     2
  6
DASHED
 10
-58.443607
 20
65.105743
 40
1.999103
 50
337.965286
 51
22.034714
  0
LINE
  8
LC-003-002-----0
 62
     2
  6
DASHED
 10
-64.443604
 20
65.905739
 11
-67.293610
 21
65.905739
  0
ARC
  8
LC-003-002-----0
 62
     2
  6
DASHED
 10
-58.443607
 20
70.205742
 40
1.999103
 50
337.965286
 51
22.034714
  0
ARC
  8
LC-003-002-----0
 62
     2
  6
DASHED
 10
-67.543610
 20
67.655739
 40
11.100000
 50
350.667582
 51
9.332418
  0
LINE
  8
LC-003-002-----0
 62
     2
  6
DASHED
 10
-64.443604
 20
69.905739
 11
-64.443604
 21
65.405739
  0
LINE
  8
LC-003-002-----0
 62
     2
  6
DASHED
 10
-56.590527
 20
69.455742
 11
-58.443607
 21
69.455742
  0
LINE
  8
LC-003-002-----0
 62
     2
  6
DASHED
 10
-56.590527
 20
65.855743
 11
-58.443607
 21
65.855743
  0
LINE
  8
LC-003-002-----0
 62
     2
  6
DASHED
 10
-56.590527
 20
70.955742
 11
-58.443607
 21
70.955742
  0
LINE
  8
LC-003-002-----0
 62
     2
  6
DASHED
 10
-56.590527
 20
64.355743
 11
-58.443607
 21
64.355743
  0
LINE
  8
LC-003-002-----0
 62
     2
  6
DASHED
 10
-67.543610
 20
69.155739
 11
-67.543610
 21
66.155739
  0
LINE
  8
LC-003-002-----0
 62
     2
  6
DASHED
 10
-58.443607
 20
74.155739
 11
-58.443607
 21
61.155746
  0
LINE
  8
LC-003-002-----0
 62
     2
  6
DASHED
 10
-64.193604
 20
70.155739
 11
-64.193604
 21
65.155739
  0
LINE
  8
LC-003-002-----0
 62
     2
  6
DASHED
 10
-64.193604
 20
70.155739
 11
-64.443604
 21
69.905739
  0
LINE
  8
LC-003-002-----0
 62
     2
  6
DASHED
 10
-64.443604
 20
65.405739
 11
-64.193604
 21
65.155739
  0
LINE
  8
LC-003-002-----0
 62
     2
  6
DASHED
 10
-56.443607
 20
70.205742
 11
-56.443607
 21
65.105743
  0
LINE
  8
LC-003-002-----0
 62
     2
  6
DASHED
 10
-58.443607
 20
-48.823013
 11
-53.594204
 21
-48.823013
  0
CIRCLE
  8
LC-003-002-----0
 62
     2
  6
DASHED
 10
21.512489
 20
67.655739
 40
6.500000
  0
LINE
  8
LC-003-002-----0
 62
     2
  6
DASHED
 10
18.652489
 20
69.306961
 11
21.512489
 21
70.958183
  0
LINE
  8
LC-003-002-----0
 62
     2
  6
DASHED
 10
21.512489
 20
64.353294
 11
24.372490
 21
66.004517
  0
LINE
  8
LC-003-002-----0
 62
     2
  6
DASHED
 10
18.652489
 20
66.004517
 11
18.652489
 21
69.306961
  0
LINE
  8
LC-003-002-----0
 62
     2
  6
DASHED
 10
24.372490
 20
66.004517
 11
24.372490
 21
69.306961
  0
LINE
  8
LC-003-002-----0
 62
     2
  6
DASHED
 10
21.512489
 20
64.353294
 11
18.652489
 21
66.004517
  0
LINE
  8
LC-003-002-----0
 62
     2
  6
DASHED
 10
24.372490
 20
69.306961
 11
21.512489
 21
70.958183
  0
CIRCLE
  8
LC-003-002-----0
 62
     2
  6
DASHED
 10
21.512489
 20
67.655739
 40
2.860000
  0
LINE
  8
LC-003-002-----0
 62
     2
  6
DASHED
 10
-58.443607
 20
-61.823013
 11
-53.594204
 21
-61.823013
  0
LINE
  8
LC-003-002-----0
 62
     2
  6
DASHED
 10
-58.943607
 20
-57.323013
 11
-64.443604
 21
-57.323013
  0
LINE
  8
LC-003-002-----0
 62
     2
  6
DASHED
 10
-58.943607
 20
-53.323013
 11
-64.443604
 21
-53.323013
  0
LINE
  8
LC-003-002-----0
 62
     2
  6
DASHED
 10
-64.193604
 20
-57.823013
 11
-58.943611
 21
-57.823013
  0
LINE
  8
LC-003-002-----0
 62
     2
  6
DASHED
 10
-58.943607
 20
-52.823013
 11
-64.193604
 21
-52.823013
  0
ARC
  8
LC-003-002-----0
 62
     2
  6
DASHED
 10
-67.293610
 20
-53.823013
 40
0.250000
 50
90.000003
 51
180.000009
  0
ARC
  8
LC-003-002-----0
 62
     2
  6
DASHED
 10
-67.293610
 20
-56.823013
 40
0.250000
 50
180.000009
 51
269.999997
  0
LINE
  8
LC-003-002-----0
 62
     2
  6
DASHED
 10
-64.443604
 20
-53.573013
 11
-67.293610
 21
-53.573013
  0
LINE
  8
LC-003-002-----0
 62
     2
  6
DASHED
 10
-58.443607
 20
-53.123013
 11
-58.943607
 21
-53.123013
  0
LINE
  8
LC-003-002-----0
 62
     2
  6
DASHED
 10
-58.443607
 20
-57.523014
 11
-58.943607
 21
-57.523014
  0
LINE
  8
LC-003-002-----0
 62
     2
  6
DASHED
 10
-58.943607
 20
-52.823013
 11
-58.943607
 21
-57.823013
  0
ARC
  8
LC-003-002-----0
 62
     2
  6
DASHED
 10
-58.443607
 20
-57.873013
 40
1.999103
 50
337.965286
 51
22.034714
  0
LINE
  8
LC-003-002-----0
 62
     2
  6
DASHED
 10
-64.443604
 20
-57.073013
 11
-67.293610
 21
-57.073013
  0
ARC
  8
LC-003-002-----0
 62
     2
  6
DASHED
 10
-58.443607
 20
-52.773014
 40
1.999103
 50
337.965286
 51
22.034714
  0
ARC
  8
LC-003-002-----0
 62
     2
  6
DASHED
 10
-67.543610
 20
-55.323013
 40
11.100000
 50
350.667582
 51
9.332418
  0
LINE
  8
LC-003-002-----0
 62
     2
  6
DASHED
 10
-64.443604
 20
-53.073013
 11
-64.443604
 21
-57.573013
  0
LINE
  8
LC-003-002-----0
 62
     2
  6
DASHED
 10
-56.590527
 20
-53.523014
 11
-58.443607
 21
-53.523014
  0
LINE
  8
LC-003-002-----0
 62
     2
  6
DASHED
 10
-56.590527
 20
-57.123013
 11
-58.443607
 21
-57.123013
  0
LINE
  8
LC-003-002-----0
 62
     2
  6
DASHED
 10
-56.590527
 20
-52.023014
 11
-58.443607
 21
-52.023014
  0
LINE
  8
LC-003-002-----0
 62
     2
  6
DASHED
 10
-56.590527
 20
-58.623013
 11
-58.443607
 21
-58.623013
  0
LINE
  8
LC-003-002-----0
 62
     2
  6
DASHED
 10
-56.443607
 20
-52.773014
 11
-56.443607
 21
-57.873013
  0
LINE
  8
LC-003-002-----0
 62
     2
  6
DASHED
 10
-58.443607
 20
-48.823013
 11
-58.443607
 21
-61.823013
  0
LINE
  8
LC-003-002-----0
 62
     2
  6
DASHED
 10
-64.193604
 20
-52.823013
 11
-64.193604
 21
-57.823013
  0
LINE
  8
LC-003-002-----0
 62
     2
  6
DASHED
 10
-64.193604
 20
-52.823013
 11
-64.443604
 21
-53.073013
  0
LINE
  8
LC-003-002-----0
 62
     2
  6
DASHED
 10
-64.443604
 20
-57.573013
 11
-64.193604
 21
-57.823013
  0
LINE
  8
LC-003-002-----0
 62
     2
  6
DASHED
 10
-67.543610
 20
-53.823013
 11
-67.543610
 21
-56.823013
  0
ENDSEC
  0
EOF
