  0
SECTION
  2
HEADER
  9
$LIMMIN
 10
151.586227
 20
-110.231567
  9
$LIMMAX
 10
478.563110
 20
173.644424
  9
$EXTMIN
 10
151.586227
 20
-110.231567
  9
$EXTMAX
 10
478.563110
 20
173.644424
  0
ENDSEC
  0
SECTION
  2
TABLES
  0
TABLE
  2
LTYPE
 70
     3
  0
LTYPE
  2
CONTINUOUS
 70
    64
  3
Ausgezogene Linie
 72
    65
 73
     0
 40
0.0
  0
LTYPE
  2
DASHED
 70
    64
  3
__ __ __ __ __ __ __ __ __ __ __ __ __ __ __
 72
    65
 73
     2
 40
0.75
 49
0.5
 49
-0.25
  0
LTYPE
  2
DASHDOT
 70
    64
  3
__ . __ . __ . __ . __ . __ . __ . __ . __ . __
 72
    65
 73
     4
 40
1.0
 49
0.5
 49
-0.25
 49
0.0
 49
-0.25
  0
ENDTAB
  0
TABLE
  2
LAYER
 70
     5
  0
LAYER
  2
LC-INFO-1-1-MM-A0-0
 70
    64
 62
     7
  6
CONTINUOUS
  0
LAYER
  2
LC-001-150-----0
 70
    64
 62
     7
  6
CONTINUOUS
  0
LAYER
  2
LC-002-021-SLN-3
 70
    64
 62
     7
  6
CONTINUOUS
  0
LAYER
  2
LC-003-002-----0
 70
    64
 62
     7
  6
CONTINUOUS
  0
LAYER
  2
LC-004-006-----0
 70
    64
 62
     7
  6
CONTINUOUS
  0
ENDTAB
  0
TABLE
  2
STYLE
 70
     1
  0
STYLE
  2
TXT8
 70
    64
 40
0.0
 41
1.0
 50
0.0
 71
     0
 42
3.500000
  3
TXT8
  4

  0
ENDTAB
  0
ENDSEC
  0
SECTION
  2
BLOCKS
  0
ENDSEC
  0
SECTION
  2
ENTITIES
  0
ARC
  8
LC-001-150-----0
 62
     1
  6
CONTINUOUS
 10
250.243393
 20
-40.168236
 40
30.290152
 50
359.889304
 51
6.055967
  0
ARC
  8
LC-001-150-----0
 62
     1
  6
CONTINUOUS
 10
264.194977
 20
-38.558628
 40
16.247108
 50
5.601973
 51
14.965477
  0
ARC
  8
LC-001-150-----0
 62
     1
  6
CONTINUOUS
 10
276.443939
 20
-35.105835
 40
3.526223
 50
12.160704
 51
38.415180
  0
ARC
  8
LC-001-150-----0
 62
     1
  6
CONTINUOUS
 10
278.684326
 20
-33.417706
 40
0.725201
 50
43.905487
 51
62.590276
  0
ARC
  8
LC-001-150-----0
 62
     1
  6
CONTINUOUS
 10
278.822998
 20
-33.154079
 40
0.427341
 50
62.823035
 51
89.446047
  0
ARC
  8
LC-001-150-----0
 62
     1
  6
CONTINUOUS
 10
278.831268
 20
-33.154079
 40
0.427341
 50
90.553951
 51
117.176963
  0
ARC
  8
LC-001-150-----0
 62
     1
  6
CONTINUOUS
 10
278.969910
 20
-33.417706
 40
0.725201
 50
117.409722
 51
136.094511
  0
ARC
  8
LC-001-150-----0
 62
     1
  6
CONTINUOUS
 10
281.210327
 20
-35.105835
 40
3.526223
 50
141.584822
 51
167.839290
  0
ARC
  8
LC-001-150-----0
 62
     1
  6
CONTINUOUS
 10
293.459259
 20
-38.558628
 40
16.247108
 50
165.034528
 51
174.398020
  0
ARC
  8
LC-001-150-----0
 62
     1
  6
CONTINUOUS
 10
307.410858
 20
-40.168236
 40
30.290152
 50
173.944031
 51
180.110699
  0
ARC
  8
LC-001-150-----0
 62
     1
  6
CONTINUOUS
 10
307.410858
 20
-40.285278
 40
30.290152
 50
179.889301
 51
186.055969
  0
ARC
  8
LC-001-150-----0
 62
     1
  6
CONTINUOUS
 10
293.459259
 20
-41.894890
 40
16.247108
 50
185.601980
 51
194.965472
  0
ARC
  8
LC-001-150-----0
 62
     1
  6
CONTINUOUS
 10
281.210327
 20
-45.347679
 40
3.526223
 50
192.160710
 51
218.415178
  0
ARC
  8
LC-001-150-----0
 62
     1
  6
CONTINUOUS
 10
278.969910
 20
-47.035812
 40
0.725201
 50
223.905489
 51
242.590278
  0
ARC
  8
LC-001-150-----0
 62
     1
  6
CONTINUOUS
 10
278.831268
 20
-47.299438
 40
0.427341
 50
242.823037
 51
269.446049
  0
ARC
  8
LC-001-150-----0
 62
     1
  6
CONTINUOUS
 10
278.822998
 20
-47.299438
 40
0.427341
 50
270.553953
 51
297.176965
  0
ARC
  8
LC-001-150-----0
 62
     1
  6
CONTINUOUS
 10
278.684326
 20
-47.035812
 40
0.725201
 50
297.409724
 51
316.094513
  0
ARC
  8
LC-001-150-----0
 62
     1
  6
CONTINUOUS
 10
276.443939
 20
-45.347679
 40
3.526223
 50
321.584820
 51
347.839296
  0
ARC
  8
LC-001-150-----0
 62
     1
  6
CONTINUOUS
 10
264.194977
 20
-41.894890
 40
16.247108
 50
345.034523
 51
354.398027
  0
ARC
  8
LC-001-150-----0
 62
     1
  6
CONTINUOUS
 10
250.243393
 20
-40.285278
 40
30.290152
 50
353.944033
 51
0.110696
  0
LINE
  8
LC-001-150-----0
 62
     1
  6
CONTINUOUS
 10
232.987045
 20
140.203156
 11
238.269775
 21
151.532013
  0
LINE
  8
LC-001-150-----0
 62
     1
  6
CONTINUOUS
 10
211.856140
 20
140.203156
 11
206.573410
 21
151.532013
  0
LINE
  8
LC-001-150-----0
 62
     1
  6
CONTINUOUS
 10
199.177582
 20
167.392395
 11
166.932220
 21
167.392395
  0
ARC
  8
LC-001-150-----0
 62
     1
  6
CONTINUOUS
 10
166.932220
 20
165.392395
 40
2.000000
 50
90.000003
 51
175.000006
  0
ARC
  8
LC-001-150-----0
 62
     1
  6
CONTINUOUS
 10
222.421600
 20
117.545464
 40
55.000000
 50
12.817481
 51
65.000001
  0
ARC
  8
LC-001-150-----0
 62
     1
  6
CONTINUOUS
 10
222.421600
 20
117.545464
 40
37.500000
 50
115.000004
 51
65.000001
  0
ARC
  8
LC-001-150-----0
 62
     1
  6
CONTINUOUS
 10
222.421600
 20
117.545464
 40
33.000000
 50
115.000004
 51
65.000001
  0
ARC
  8
LC-001-150-----0
 62
     1
  6
CONTINUOUS
 10
222.421600
 20
117.545464
 40
48.000000
 50
115.000004
 51
65.000001
  0
LINE
  8
LC-001-150-----0
 62
     1
  6
CONTINUOUS
 10
206.573410
 20
151.532013
 11
199.177582
 21
167.392395
  0
LINE
  8
LC-001-150-----0
 62
     1
  6
CONTINUOUS
 10
238.269775
 20
151.532013
 11
245.665604
 21
167.392395
  0
LINE
  8
LC-001-150-----0
 62
     1
  6
CONTINUOUS
 10
199.177582
 20
-25.226757
 11
199.177582
 21
-55.226757
  0
LINE
  8
LC-001-150-----0
 62
     1
  6
CONTINUOUS
 10
245.665604
 20
-25.226757
 11
245.665604
 21
-55.226757
  0
LINE
  8
LC-001-150-----0
 62
     1
  6
CONTINUOUS
 10
211.856140
 20
9.773242
 11
211.856140
 21
-90.226761
  0
LINE
  8
LC-001-150-----0
 62
     1
  6
CONTINUOUS
 10
232.987045
 20
9.773242
 11
232.987045
 21
-90.226761
  0
LINE
  8
LC-001-150-----0
 62
     1
  6
CONTINUOUS
 10
157.421600
 20
-25.226757
 11
206.573410
 21
-25.226757
  0
LINE
  8
LC-001-150-----0
 62
     1
  6
CONTINUOUS
 10
238.269775
 20
-25.226757
 11
287.421600
 21
-25.226757
  0
LINE
  8
LC-001-150-----0
 62
     1
  6
CONTINUOUS
 10
157.421600
 20
-55.226757
 11
206.573410
 21
-55.226757
  0
LINE
  8
LC-001-150-----0
 62
     1
  6
CONTINUOUS
 10
238.269775
 20
-55.226757
 11
287.421600
 21
-55.226757
  0
LINE
  8
LC-001-150-----0
 62
     1
  6
CONTINUOUS
 10
206.573410
 20
-55.226757
 11
206.573410
 21
-90.226761
  0
LINE
  8
LC-001-150-----0
 62
     1
  6
CONTINUOUS
 10
238.269775
 20
-55.226757
 11
238.269775
 21
-90.226761
  0
LINE
  8
LC-001-150-----0
 62
     1
  6
CONTINUOUS
 10
238.269775
 20
9.773242
 11
238.269775
 21
-25.226757
  0
LINE
  8
LC-001-150-----0
 62
     1
  6
CONTINUOUS
 10
238.269775
 20
-25.226757
 11
238.269775
 21
-55.226757
  0
LINE
  8
LC-001-150-----0
 62
     1
  6
CONTINUOUS
 10
206.573410
 20
9.773242
 11
206.573410
 21
-25.226757
  0
LINE
  8
LC-001-150-----0
 62
     1
  6
CONTINUOUS
 10
206.573410
 20
-25.226757
 11
206.573410
 21
-55.226757
  0
LINE
  8
LC-001-150-----0
 62
     1
  6
CONTINUOUS
 10
176.421600
 20
-4.226758
 11
206.573410
 21
-4.226758
  0
LINE
  8
LC-003-002-----0
 62
     2
  6
DASHED
 10
206.573410
 20
-4.226758
 11
238.269775
 21
-4.226758
  0
LINE
  8
LC-001-150-----0
 62
     1
  6
CONTINUOUS
 10
238.269775
 20
-4.226758
 11
268.421600
 21
-4.226758
  0
LINE
  8
LC-001-150-----0
 62
     1
  6
CONTINUOUS
 10
176.421600
 20
-76.226761
 11
206.573410
 21
-76.226761
  0
LINE
  8
LC-003-002-----0
 62
     2
  6
DASHED
 10
206.573410
 20
-76.226761
 11
238.269775
 21
-76.226761
  0
LINE
  8
LC-001-150-----0
 62
     1
  6
CONTINUOUS
 10
238.269775
 20
-76.226761
 11
268.421600
 21
-76.226761
  0
ARC
  8
LC-001-150-----0
 62
     1
  6
CONTINUOUS
 10
185.760986
 20
83.545464
 40
2.000000
 50
269.999997
 51
42.843642
  0
ARC
  8
LC-001-150-----0
 62
     1
  6
CONTINUOUS
 10
259.082184
 20
83.545464
 40
2.000000
 50
137.156359
 51
269.999997
  0
LINE
  8
LC-003-002-----0
 62
     2
  6
DASHED
 10
278.827118
 20
-32.726757
 11
268.421600
 21
-32.726757
  0
LINE
  8
LC-003-002-----0
 62
     2
  6
DASHED
 10
260.671600
 20
114.545464
 11
267.921600
 21
114.545464
  0
LINE
  8
LC-003-002-----0
 62
     2
  6
DASHED
 10
260.671600
 20
120.545464
 11
267.921600
 21
120.545464
  0
LINE
  8
LC-003-002-----0
 62
     2
  6
DASHED
 10
267.921600
 20
115.045464
 11
260.421600
 21
115.045464
  0
LINE
  8
LC-003-002-----0
 62
     2
  6
DASHED
 10
267.921600
 20
120.045464
 11
260.421600
 21
120.045464
  0
LINE
  8
LC-003-002-----0
 62
     2
  6
DASHED
 10
270.921600
 20
114.345467
 11
270.921600
 21
120.616852
  0
LINE
  8
LC-003-002-----0
 62
     2
  6
DASHED
 10
268.421600
 20
110.045464
 11
268.421600
 21
125.045464
  0
LINE
  8
LC-003-002-----0
 62
     2
  6
DASHED
 10
256.121582
 20
115.545464
 11
256.121582
 21
119.545464
  0
LINE
  8
LC-003-002-----0
 62
     2
  6
DASHED
 10
270.708923
 20
113.645470
 11
268.421600
 21
113.645470
  0
LINE
  8
LC-003-002-----0
 62
     2
  6
DASHED
 10
270.708923
 20
121.445465
 11
268.421600
 21
121.445465
  0
LINE
  8
LC-003-002-----0
 62
     2
  6
DASHED
 10
260.421600
 20
114.795464
 11
260.421600
 21
120.295464
  0
LINE
  8
LC-003-002-----0
 62
     2
  6
DASHED
 10
260.421600
 20
114.795464
 11
260.671600
 21
114.545464
  0
LINE
  8
LC-003-002-----0
 62
     2
  6
DASHED
 10
260.421600
 20
120.295464
 11
260.671600
 21
120.545464
  0
LINE
  8
LC-003-002-----0
 62
     2
  6
DASHED
 10
260.671600
 20
114.545464
 11
260.671600
 21
120.545464
  0
LINE
  8
LC-003-002-----0
 62
     2
  6
DASHED
 10
260.421600
 20
115.295464
 11
256.371582
 21
115.295464
  0
LINE
  8
LC-003-002-----0
 62
     2
  6
DASHED
 10
260.421600
 20
119.795464
 11
256.371582
 21
119.795464
  0
ARC
  8
LC-003-002-----0
 62
     2
  6
DASHED
 10
256.371582
 20
115.545464
 40
0.250000
 50
180.000009
 51
269.999997
  0
ARC
  8
LC-003-002-----0
 62
     2
  6
DASHED
 10
256.371582
 20
119.545464
 40
0.250000
 50
90.000003
 51
180.000009
  0
LINE
  8
LC-003-002-----0
 62
     2
  6
DASHED
 10
267.921600
 20
114.545464
 11
267.921600
 21
120.545464
  0
LINE
  8
LC-002-021-SLN-3
 62
     2
  6
DASHDOT
 10
276.421600
 20
86.382118
 11
276.421600
 21
62.822041
  0
LINE
  8
LC-003-002-----0
 62
     2
  6
DASHED
 10
267.921600
 20
115.295464
 11
268.421600
 21
115.295464
  0
LINE
  8
LC-003-002-----0
 62
     2
  6
DASHED
 10
267.921600
 20
119.795464
 11
268.421600
 21
119.795464
  0
LINE
  8
LC-003-002-----0
 62
     2
  6
DASHED
 10
268.421600
 20
115.045464
 11
270.708923
 21
115.045464
  0
LINE
  8
LC-003-002-----0
 62
     2
  6
DASHED
 10
268.421600
 20
120.045464
 11
270.708923
 21
120.045464
  0
ARC
  8
LC-003-002-----0
 62
     2
  6
DASHED
 10
256.121582
 20
117.545464
 40
14.800000
 50
350.275031
 51
9.724969
  0
ARC
  8
LC-003-002-----0
 62
     2
  6
DASHED
 10
269.702179
 20
120.745468
 40
1.226194
 50
325.188944
 51
34.811056
  0
ARC
  8
LC-003-002-----0
 62
     2
  6
DASHED
 10
269.702179
 20
114.345467
 40
1.226194
 50
325.188944
 51
34.811056
  0
LINE
  8
LC-003-002-----0
 62
     2
  6
DASHED
 10
280.533478
 20
110.045464
 11
268.421600
 21
110.045464
  0
LINE
  8
LC-003-002-----0
 62
     2
  6
DASHED
 10
277.120758
 20
125.045464
 11
268.421600
 21
125.045464
  0
CIRCLE
  8
LC-003-002-----0
 62
     2
  6
DASHED
 10
403.147583
 20
117.545464
 40
7.500000
  0
LINE
  8
LC-003-002-----0
 62
     2
  6
DASHED
 10
399.822601
 20
115.625778
 11
403.147583
 21
113.706085
  0
LINE
  8
LC-003-002-----0
 62
     2
  6
DASHED
 10
403.147583
 20
121.384850
 11
406.472595
 21
119.465157
  0
LINE
  8
LC-003-002-----0
 62
     2
  6
DASHED
 10
399.822601
 20
119.465157
 11
399.822601
 21
115.625778
  0
LINE
  8
LC-003-002-----0
 62
     2
  6
DASHED
 10
406.472595
 20
119.465157
 11
406.472595
 21
115.625778
  0
LINE
  8
LC-003-002-----0
 62
     2
  6
DASHED
 10
403.147583
 20
121.384850
 11
399.822601
 21
119.465157
  0
LINE
  8
LC-003-002-----0
 62
     2
  6
DASHED
 10
406.472595
 20
115.625778
 11
403.147583
 21
113.706085
  0
CIRCLE
  8
LC-003-002-----0
 62
     2
  6
DASHED
 10
403.147583
 20
117.545464
 40
3.325000
  0
LINE
  8
LC-003-002-----0
 62
     2
  6
DASHED
 10
280.921600
 20
81.545464
 11
280.921600
 21
67.545464
  0
LINE
  8
LC-003-002-----0
 62
     2
  6
DASHED
 10
271.921600
 20
81.545464
 11
271.921600
 21
67.545464
  0
LINE
  8
LC-002-021-SLN-3
 62
     2
  6
DASHDOT
 10
168.421600
 20
86.382118
 11
168.421600
 21
62.822041
  0
LINE
  8
LC-003-002-----0
 62
     2
  6
DASHED
 10
163.921600
 20
81.545464
 11
163.921600
 21
67.545464
  0
LINE
  8
LC-003-002-----0
 62
     2
  6
DASHED
 10
172.921600
 20
81.545464
 11
172.921600
 21
67.545464
  0
LINE
  8
LC-001-150-----0
 62
     1
  6
CONTINUOUS
 10
157.421600
 20
79.545464
 11
157.421600
 21
67.545464
  0
LINE
  8
LC-001-150-----0
 62
     1
  6
CONTINUOUS
 10
157.421600
 20
67.545464
 11
287.421600
 21
67.545464
  0
LINE
  8
LC-001-150-----0
 62
     1
  6
CONTINUOUS
 10
159.421600
 20
81.545464
 11
185.760986
 21
81.545464
  0
LINE
  8
LC-001-150-----0
 62
     1
  6
CONTINUOUS
 10
368.147583
 20
67.545464
 11
438.147583
 21
67.545464
  0
LINE
  8
LC-002-021-SLN-3
 62
     2
  6
DASHDOT
 10
170.273605
 20
117.545464
 11
280.937225
 21
117.545464
  0
LINE
  8
LC-002-021-SLN-3
 62
     2
  6
DASHDOT
 10
222.421600
 20
172.157654
 11
222.421600
 21
62.822044
  0
LINE
  8
LC-001-150-----0
 62
     1
  6
CONTINUOUS
 10
287.421600
 20
79.545464
 11
287.421600
 21
67.545464
  0
ARC
  8
LC-001-150-----0
 62
     1
  6
CONTINUOUS
 10
159.421600
 20
79.545464
 40
2.000000
 50
90.000003
 51
180.000009
  0
ARC
  8
LC-001-150-----0
 62
     1
  6
CONTINUOUS
 10
285.421600
 20
79.545464
 40
2.000000
 50
0.000000
 51
90.000003
  0
CIRCLE
  8
LC-001-150-----0
 62
     1
  6
CONTINUOUS
 10
222.421600
 20
117.545464
 40
25.000000
  0
LINE
  8
LC-001-150-----0
 62
     1
  6
CONTINUOUS
 10
438.147583
 20
67.545464
 11
438.147583
 21
79.545464
  0
LINE
  8
LC-001-150-----0
 62
     1
  6
CONTINUOUS
 10
287.371765
 20
79.989159
 11
276.051086
 21
129.746994
  0
LINE
  8
LC-001-150-----0
 62
     1
  6
CONTINUOUS
 10
157.429199
 20
79.719780
 11
164.939835
 21
165.566711
  0
LINE
  8
LC-001-150-----0
 62
     1
  6
CONTINUOUS
 10
259.082184
 20
81.545464
 11
285.421600
 21
81.545464
  0
LINE
  8
LC-001-150-----0
 62
     1
  6
CONTINUOUS
 10
370.147583
 20
81.545464
 11
436.147583
 21
81.545464
  0
LINE
  8
LC-001-150-----0
 62
     1
  6
CONTINUOUS
 10
368.147583
 20
67.545464
 11
368.147583
 21
79.545464
  0
ARC
  8
LC-001-150-----0
 62
     1
  6
CONTINUOUS
 10
370.147583
 20
79.545464
 40
2.000000
 50
90.000003
 51
180.000009
  0
ARC
  8
LC-001-150-----0
 62
     1
  6
CONTINUOUS
 10
436.147583
 20
79.545464
 40
2.000000
 50
0.000000
 51
90.000003
  0
LINE
  8
LC-002-021-SLN-3
 62
     2
  6
DASHDOT
 10
403.147583
 20
62.822041
 11
403.147583
 21
173.644424
  0
LINE
  8
LC-001-150-----0
 62
     1
  6
CONTINUOUS
 10
439.147583
 20
71.545464
 11
439.147583
 21
165.392395
  0
LINE
  8
LC-001-150-----0
 62
     1
  6
CONTINUOUS
 10
367.147583
 20
71.545464
 11
367.147583
 21
165.392395
  0
ARC
  8
LC-001-150-----0
 62
     1
  6
CONTINUOUS
 10
369.147583
 20
165.392395
 40
2.000000
 50
90.000003
 51
180.000009
  0
ARC
  8
LC-001-150-----0
 62
     1
  6
CONTINUOUS
 10
437.147583
 20
165.392395
 40
2.000000
 50
0.000000
 51
90.000003
  0
LINE
  8
LC-001-150-----0
 62
     1
  6
CONTINUOUS
 10
418.147583
 20
83.545464
 11
418.147583
 21
165.392395
  0
LINE
  8
LC-001-150-----0
 62
     1
  6
CONTINUOUS
 10
388.147583
 20
83.545464
 11
388.147583
 21
165.392395
  0
LINE
  8
LC-001-150-----0
 62
     1
  6
CONTINUOUS
 10
369.147583
 20
167.392395
 11
437.147583
 21
167.392395
  0
ARC
  8
LC-001-150-----0
 62
     1
  6
CONTINUOUS
 10
386.147583
 20
83.545464
 40
2.000000
 50
269.999997
 51
0.000000
  0
ARC
  8
LC-001-150-----0
 62
     1
  6
CONTINUOUS
 10
420.147583
 20
83.545464
 40
2.000000
 50
180.000009
 51
269.999997
  0
ARC
  8
LC-001-150-----0
 62
     1
  6
CONTINUOUS
 10
390.147583
 20
165.392395
 40
2.000000
 50
90.000003
 51
180.000009
  0
ARC
  8
LC-001-150-----0
 62
     1
  6
CONTINUOUS
 10
416.147583
 20
165.392395
 40
2.000000
 50
0.000000
 51
90.000003
  0
LINE
  8
LC-002-021-SLN-3
 62
     2
  6
DASHDOT
 10
378.147583
 20
86.382118
 11
378.147583
 21
62.822041
  0
LINE
  8
LC-002-021-SLN-3
 62
     2
  6
DASHDOT
 10
428.147583
 20
86.382118
 11
428.147583
 21
62.822041
  0
LINE
  8
LC-003-002-----0
 62
     2
  6
DASHED
 10
432.647583
 20
81.545464
 11
432.647583
 21
67.545464
  0
LINE
  8
LC-003-002-----0
 62
     2
  6
DASHED
 10
423.647583
 20
81.545464
 11
423.647583
 21
67.545464
  0
LINE
  8
LC-003-002-----0
 62
     2
  6
DASHED
 10
373.647583
 20
81.545464
 11
373.647583
 21
67.545464
  0
LINE
  8
LC-003-002-----0
 62
     2
  6
DASHED
 10
382.647583
 20
81.545464
 11
382.647583
 21
67.545464
  0
ARC
  8
LC-001-150-----0
 62
     1
  6
CONTINUOUS
 10
369.147583
 20
71.545464
 40
2.000000
 50
180.000009
 51
239.999997
  0
ARC
  8
LC-001-150-----0
 62
     1
  6
CONTINUOUS
 10
437.147583
 20
71.545464
 40
2.000000
 50
299.999998
 51
0.000000
  0
LINE
  8
LC-001-150-----0
 62
     1
  6
CONTINUOUS
 10
157.421600
 20
-7.226758
 11
157.421600
 21
-73.226761
  0
LINE
  8
LC-001-150-----0
 62
     1
  6
CONTINUOUS
 10
159.421600
 20
-75.226761
 11
174.689545
 21
-75.226761
  0
LINE
  8
LC-001-150-----0
 62
     1
  6
CONTINUOUS
 10
355.147583
 20
151.532013
 11
367.147583
 21
151.532013
  0
LINE
  8
LC-001-150-----0
 62
     1
  6
CONTINUOUS
 10
355.147583
 20
80.045464
 11
367.147583
 21
80.045464
  0
LINE
  8
LC-001-150-----0
 62
     1
  6
CONTINUOUS
 10
453.147583
 20
82.045464
 11
453.147583
 21
149.532013
  0
LINE
  8
LC-001-150-----0
 62
     1
  6
CONTINUOUS
 10
353.147583
 20
82.045464
 11
353.147583
 21
149.532013
  0
ARC
  8
LC-001-150-----0
 62
     1
  6
CONTINUOUS
 10
355.147583
 20
149.532013
 40
2.000000
 50
90.000003
 51
180.000009
  0
ARC
  8
LC-001-150-----0
 62
     1
  6
CONTINUOUS
 10
355.147583
 20
82.045464
 40
2.000000
 50
180.000009
 51
269.999997
  0
ARC
  8
LC-001-150-----0
 62
     1
  6
CONTINUOUS
 10
451.147583
 20
82.045464
 40
2.000000
 50
269.999997
 51
0.000000
  0
ARC
  8
LC-001-150-----0
 62
     1
  6
CONTINUOUS
 10
451.147583
 20
149.532013
 40
2.000000
 50
0.000000
 51
90.000003
  0
LINE
  8
LC-001-150-----0
 62
     1
  6
CONTINUOUS
 10
287.421600
 20
-7.226758
 11
287.421600
 21
-73.226761
  0
LINE
  8
LC-003-002-----0
 62
     2
  6
DASHED
 10
367.147583
 20
151.532013
 11
439.147583
 21
151.532013
  0
LINE
  8
LC-003-002-----0
 62
     2
  6
DASHED
 10
367.147583
 20
80.045464
 11
439.147583
 21
80.045464
  0
LINE
  8
LC-001-150-----0
 62
     1
  6
CONTINUOUS
 10
439.147583
 20
80.045464
 11
451.147583
 21
80.045464
  0
LINE
  8
LC-001-150-----0
 62
     1
  6
CONTINUOUS
 10
439.147583
 20
151.532013
 11
451.147583
 21
151.532013
  0
LINE
  8
LC-001-150-----0
 62
     1
  6
CONTINUOUS
 10
331.339081
 20
142.545471
 11
353.147583
 21
142.545471
  0
LINE
  8
LC-001-150-----0
 62
     1
  6
CONTINUOUS
 10
334.096466
 20
92.545464
 11
353.147583
 21
92.545464
  0
LINE
  8
LC-002-021-SLN-3
 62
     2
  6
DASHDOT
 10
328.749298
 20
117.545464
 11
478.563110
 21
117.545464
  0
LINE
  8
LC-004-006-----0
 62
     2
  6
CONTINUOUS
 10
334.096466
 20
92.545464
 11
335.029358
 21
103.460358
  0
LINE
  8
LC-004-006-----0
 62
     2
  6
CONTINUOUS
 10
335.029358
 20
103.460358
 11
331.339081
 21
129.639053
  0
LINE
  8
LC-004-006-----0
 62
     2
  6
CONTINUOUS
 10
331.339081
 20
129.639053
 11
331.339081
 21
142.545471
  0
LINE
  8
LC-004-006-----0
 62
     2
  6
CONTINUOUS
 10
471.629639
 20
92.545464
 11
474.041199
 21
105.273552
  0
LINE
  8
LC-004-006-----0
 62
     2
  6
CONTINUOUS
 10
474.041199
 20
105.273552
 11
472.771149
 21
128.604233
  0
LINE
  8
LC-004-006-----0
 62
     2
  6
CONTINUOUS
 10
472.771149
 20
128.604233
 11
473.404266
 21
142.545471
  0
LINE
  8
LC-003-002-----0
 62
     2
  6
DASHED
 10
353.147583
 20
142.545471
 11
453.147583
 21
142.545471
  0
LINE
  8
LC-003-002-----0
 62
     2
  6
DASHED
 10
353.147583
 20
92.545464
 11
453.147583
 21
92.545464
  0
LINE
  8
LC-001-150-----0
 62
     1
  6
CONTINUOUS
 10
453.147583
 20
92.545464
 11
471.629639
 21
92.545464
  0
LINE
  8
LC-001-150-----0
 62
     1
  6
CONTINUOUS
 10
453.147583
 20
142.545471
 11
473.404266
 21
142.545471
  0
LINE
  8
LC-001-150-----0
 62
     1
  6
CONTINUOUS
 10
159.421600
 20
-5.226758
 11
174.689545
 21
-5.226758
  0
LINE
  8
LC-002-021-SLN-3
 62
     2
  6
DASHDOT
 10
151.586227
 20
-40.226757
 11
283.419556
 21
-40.226757
  0
ARC
  8
LC-001-150-----0
 62
     1
  6
CONTINUOUS
 10
159.421600
 20
-7.226758
 40
2.000000
 50
90.000003
 51
180.000009
  0
ARC
  8
LC-001-150-----0
 62
     1
  6
CONTINUOUS
 10
159.421600
 20
-73.226761
 40
2.000000
 50
180.000009
 51
269.999997
  0
ARC
  8
LC-001-150-----0
 62
     1
  6
CONTINUOUS
 10
285.421600
 20
-73.226761
 40
2.000000
 50
269.999997
 51
0.000000
  0
ARC
  8
LC-001-150-----0
 62
     1
  6
CONTINUOUS
 10
285.421600
 20
-7.226758
 40
2.000000
 50
0.000000
 51
90.000003
  0
LINE
  8
LC-001-150-----0
 62
     1
  6
CONTINUOUS
 10
164.515793
 20
-27.226757
 11
164.515793
 21
-53.226757
  0
ARC
  8
LC-001-150-----0
 62
     1
  6
CONTINUOUS
 10
166.515793
 20
-53.226757
 40
2.000000
 50
180.000009
 51
269.999997
  0
ARC
  8
LC-001-150-----0
 62
     1
  6
CONTINUOUS
 10
166.515793
 20
-27.226757
 40
2.000000
 50
90.000003
 51
180.000009
  0
LINE
  8
LC-001-150-----0
 62
     1
  6
CONTINUOUS
 10
174.421600
 20
-6.226758
 11
174.421600
 21
-23.226757
  0
LINE
  8
LC-001-150-----0
 62
     1
  6
CONTINUOUS
 10
270.421600
 20
-6.226758
 11
270.421600
 21
-23.226757
  0
ARC
  8
LC-001-150-----0
 62
     1
  6
CONTINUOUS
 10
176.421600
 20
-6.226758
 40
2.000000
 50
90.000003
 51
180.000009
  0
ARC
  8
LC-001-150-----0
 62
     1
  6
CONTINUOUS
 10
268.421600
 20
-6.226758
 40
2.000000
 50
0.000000
 51
90.000003
  0
ARC
  8
LC-001-150-----0
 62
     1
  6
CONTINUOUS
 10
268.421600
 20
-74.226761
 40
2.000000
 50
269.999997
 51
0.000000
  0
ARC
  8
LC-001-150-----0
 62
     1
  6
CONTINUOUS
 10
176.421600
 20
-74.226761
 40
2.000000
 50
180.000009
 51
269.999997
  0
LINE
  8
LC-003-002-----0
 62
     2
  6
DASHED
 10
174.689545
 20
-5.226758
 11
270.153656
 21
-5.226758
  0
LINE
  8
LC-001-150-----0
 62
     1
  6
CONTINUOUS
 10
270.153656
 20
-5.226758
 11
285.421600
 21
-5.226758
  0
LINE
  8
LC-003-002-----0
 62
     2
  6
DASHED
 10
174.689545
 20
-75.226761
 11
270.153656
 21
-75.226761
  0
LINE
  8
LC-001-150-----0
 62
     1
  6
CONTINUOUS
 10
270.153656
 20
-75.226761
 11
285.421600
 21
-75.226761
  0
LINE
  8
LC-001-150-----0
 62
     1
  6
CONTINUOUS
 10
174.421600
 20
-57.226757
 11
174.421600
 21
-74.226761
  0
LINE
  8
LC-001-150-----0
 62
     1
  6
CONTINUOUS
 10
270.421600
 20
-57.226757
 11
270.421600
 21
-74.226761
  0
ARC
  8
LC-001-150-----0
 62
     1
  6
CONTINUOUS
 10
172.421600
 20
-23.226757
 40
2.000000
 50
269.999997
 51
0.000000
  0
ARC
  8
LC-001-150-----0
 62
     1
  6
CONTINUOUS
 10
172.421600
 20
-57.226757
 40
2.000000
 50
0.000000
 51
90.000003
  0
ARC
  8
LC-001-150-----0
 62
     1
  6
CONTINUOUS
 10
272.421600
 20
-23.226757
 40
2.000000
 50
180.000009
 51
269.999997
  0
ARC
  8
LC-001-150-----0
 62
     1
  6
CONTINUOUS
 10
272.421600
 20
-57.226757
 40
2.000000
 50
90.000003
 51
180.000009
  0
LINE
  8
LC-002-021-SLN-3
 62
     2
  6
DASHDOT
 10
168.421600
 20
-8.319703
 11
168.421600
 21
-22.720617
  0
LINE
  8
LC-002-021-SLN-3
 62
     2
  6
DASHDOT
 10
161.683151
 20
-15.226758
 11
175.754883
 21
-15.226758
  0
CIRCLE
  8
LC-001-150-----0
 62
     1
  6
CONTINUOUS
 10
168.421600
 20
-15.226758
 40
4.500000
  0
LINE
  8
LC-002-021-SLN-3
 62
     2
  6
DASHDOT
 10
168.421600
 20
-72.133812
 11
168.421600
 21
-57.732899
  0
LINE
  8
LC-002-021-SLN-3
 62
     2
  6
DASHDOT
 10
161.683151
 20
-65.226761
 11
175.754883
 21
-65.226761
  0
CIRCLE
  8
LC-001-150-----0
 62
     1
  6
CONTINUOUS
 10
168.421600
 20
-65.226761
 40
4.500000
  0
LINE
  8
LC-002-021-SLN-3
 62
     2
  6
DASHDOT
 10
276.421600
 20
-8.319703
 11
276.421600
 21
-22.720617
  0
LINE
  8
LC-002-021-SLN-3
 62
     2
  6
DASHDOT
 10
283.160034
 20
-15.226758
 11
269.088318
 21
-15.226758
  0
CIRCLE
  8
LC-001-150-----0
 62
     1
  6
CONTINUOUS
 10
276.421600
 20
-15.226758
 40
4.500000
  0
LINE
  8
LC-002-021-SLN-3
 62
     2
  6
DASHDOT
 10
276.421600
 20
-72.133812
 11
276.421600
 21
-57.732899
  0
LINE
  8
LC-002-021-SLN-3
 62
     2
  6
DASHDOT
 10
283.160034
 20
-65.226761
 11
269.088318
 21
-65.226761
  0
CIRCLE
  8
LC-001-150-----0
 62
     1
  6
CONTINUOUS
 10
276.421600
 20
-65.226761
 40
4.500000
  0
LINE
  8
LC-001-150-----0
 62
     1
  6
CONTINUOUS
 10
184.921600
 20
7.773242
 11
184.921600
 21
-4.226758
  0
LINE
  8
LC-001-150-----0
 62
     1
  6
CONTINUOUS
 10
259.921600
 20
7.773242
 11
259.921600
 21
-4.226758
  0
LINE
  8
LC-001-150-----0
 62
     1
  6
CONTINUOUS
 10
186.921600
 20
9.773242
 11
257.921600
 21
9.773242
  0
LINE
  8
LC-001-150-----0
 62
     1
  6
CONTINUOUS
 10
186.921600
 20
-90.226761
 11
257.921600
 21
-90.226761
  0
ARC
  8
LC-001-150-----0
 62
     1
  6
CONTINUOUS
 10
186.921600
 20
7.773242
 40
2.000000
 50
90.000003
 51
180.000009
  0
ARC
  8
LC-001-150-----0
 62
     1
  6
CONTINUOUS
 10
257.921600
 20
7.773242
 40
2.000000
 50
0.000000
 51
90.000003
  0
ARC
  8
LC-001-150-----0
 62
     1
  6
CONTINUOUS
 10
257.921600
 20
-88.226761
 40
2.000000
 50
269.999997
 51
0.000000
  0
ARC
  8
LC-001-150-----0
 62
     1
  6
CONTINUOUS
 10
186.921600
 20
-88.226761
 40
2.000000
 50
180.000009
 51
269.999997
  0
LINE
  8
LC-003-002-----0
 62
     2
  6
DASHED
 10
184.921600
 20
-4.226758
 11
184.921600
 21
-76.226761
  0
LINE
  8
LC-003-002-----0
 62
     2
  6
DASHED
 10
259.921600
 20
-4.226758
 11
259.921600
 21
-76.226761
  0
LINE
  8
LC-001-150-----0
 62
     1
  6
CONTINUOUS
 10
259.921600
 20
-76.226761
 11
259.921600
 21
-88.226761
  0
LINE
  8
LC-001-150-----0
 62
     1
  6
CONTINUOUS
 10
184.921600
 20
-76.226761
 11
184.921600
 21
-88.226761
  0
LINE
  8
LC-001-150-----0
 62
     1
  6
CONTINUOUS
 10
197.421600
 20
24.318083
 11
197.421600
 21
9.773242
  0
LINE
  8
LC-004-006-----0
 62
     2
  6
CONTINUOUS
 10
197.421600
 20
24.318083
 11
212.054443
 21
22.118298
  0
LINE
  8
LC-004-006-----0
 62
     2
  6
CONTINUOUS
 10
212.054443
 20
22.118298
 11
235.184479
 21
24.597540
  0
LINE
  8
LC-004-006-----0
 62
     2
  6
CONTINUOUS
 10
235.184479
 20
24.597540
 11
247.421600
 21
24.338547
  0
LINE
  8
LC-002-021-SLN-3
 62
     2
  6
DASHDOT
 10
222.421600
 20
28.889259
 11
222.421600
 21
-110.231567
  0
LINE
  8
LC-004-006-----0
 62
     2
  6
CONTINUOUS
 10
197.421600
 20
-104.771599
 11
212.054443
 21
-102.571815
  0
LINE
  8
LC-004-006-----0
 62
     2
  6
CONTINUOUS
 10
212.054443
 20
-102.571815
 11
235.184479
 21
-105.051056
  0
LINE
  8
LC-004-006-----0
 62
     2
  6
CONTINUOUS
 10
235.184479
 20
-105.051056
 11
247.421600
 21
-104.792061
  0
LINE
  8
LC-003-002-----0
 62
     2
  6
DASHED
 10
197.421600
 20
9.773242
 11
197.421600
 21
-90.226761
  0
LINE
  8
LC-001-150-----0
 62
     1
  6
CONTINUOUS
 10
247.421600
 20
24.338547
 11
247.421600
 21
9.773242
  0
LINE
  8
LC-003-002-----0
 62
     2
  6
DASHED
 10
247.421600
 20
9.773242
 11
247.421600
 21
-90.226761
  0
LINE
  8
LC-001-150-----0
 62
     1
  6
CONTINUOUS
 10
197.421600
 20
-90.226761
 11
197.421600
 21
-104.771599
  0
LINE
  8
LC-001-150-----0
 62
     1
  6
CONTINUOUS
 10
247.421600
 20
-90.226761
 11
247.421600
 21
-104.792061
  0
LINE
  8
LC-003-002-----0
 62
     2
  6
DASHED
 10
260.671600
 20
-43.226757
 11
267.921600
 21
-43.226757
  0
LINE
  8
LC-003-002-----0
 62
     2
  6
DASHED
 10
260.671600
 20
-37.226757
 11
267.921600
 21
-37.226757
  0
LINE
  8
LC-003-002-----0
 62
     2
  6
DASHED
 10
267.921600
 20
-42.726757
 11
260.421600
 21
-42.726757
  0
LINE
  8
LC-003-002-----0
 62
     2
  6
DASHED
 10
267.921600
 20
-37.726757
 11
260.421600
 21
-37.726757
  0
LINE
  8
LC-003-002-----0
 62
     2
  6
DASHED
 10
270.921600
 20
-43.426758
 11
270.921600
 21
-37.155376
  0
LINE
  8
LC-003-002-----0
 62
     2
  6
DASHED
 10
268.421600
 20
-47.726757
 11
268.421600
 21
-32.726757
  0
LINE
  8
LC-003-002-----0
 62
     2
  6
DASHED
 10
256.121582
 20
-42.226757
 11
256.121582
 21
-38.226757
  0
LINE
  8
LC-003-002-----0
 62
     2
  6
DASHED
 10
270.708923
 20
-44.126759
 11
268.421600
 21
-44.126759
  0
LINE
  8
LC-003-002-----0
 62
     2
  6
DASHED
 10
270.708923
 20
-36.326759
 11
268.421600
 21
-36.326759
  0
LINE
  8
LC-003-002-----0
 62
     2
  6
DASHED
 10
260.421600
 20
-42.976757
 11
260.421600
 21
-37.476757
  0
LINE
  8
LC-003-002-----0
 62
     2
  6
DASHED
 10
260.421600
 20
-42.976757
 11
260.671600
 21
-43.226757
  0
LINE
  8
LC-003-002-----0
 62
     2
  6
DASHED
 10
260.421600
 20
-37.476757
 11
260.671600
 21
-37.226757
  0
LINE
  8
LC-003-002-----0
 62
     2
  6
DASHED
 10
260.671600
 20
-43.226757
 11
260.671600
 21
-37.226757
  0
LINE
  8
LC-003-002-----0
 62
     2
  6
DASHED
 10
260.421600
 20
-42.476757
 11
256.371582
 21
-42.476757
  0
LINE
  8
LC-003-002-----0
 62
     2
  6
DASHED
 10
260.421600
 20
-37.976757
 11
256.371582
 21
-37.976757
  0
ARC
  8
LC-003-002-----0
 62
     2
  6
DASHED
 10
256.371582
 20
-42.226757
 40
0.250000
 50
180.000009
 51
269.999997
  0
ARC
  8
LC-003-002-----0
 62
     2
  6
DASHED
 10
256.371582
 20
-38.226757
 40
0.250000
 50
90.000003
 51
180.000009
  0
LINE
  8
LC-003-002-----0
 62
     2
  6
DASHED
 10
267.921600
 20
-43.226757
 11
267.921600
 21
-37.226757
  0
LINE
  8
LC-003-002-----0
 62
     2
  6
DASHED
 10
267.921600
 20
-42.476757
 11
268.421600
 21
-42.476757
  0
LINE
  8
LC-003-002-----0
 62
     2
  6
DASHED
 10
267.921600
 20
-37.976757
 11
268.421600
 21
-37.976757
  0
LINE
  8
LC-003-002-----0
 62
     2
  6
DASHED
 10
268.421600
 20
-42.726757
 11
270.708923
 21
-42.726757
  0
LINE
  8
LC-003-002-----0
 62
     2
  6
DASHED
 10
268.421600
 20
-37.726757
 11
270.708923
 21
-37.726757
  0
ARC
  8
LC-003-002-----0
 62
     2
  6
DASHED
 10
256.121582
 20
-40.226757
 40
14.800000
 50
350.275031
 51
9.724969
  0
ARC
  8
LC-003-002-----0
 62
     2
  6
DASHED
 10
269.702179
 20
-37.026756
 40
1.226194
 50
325.188944
 51
34.811056
  0
ARC
  8
LC-003-002-----0
 62
     2
  6
DASHED
 10
269.702179
 20
-43.426758
 40
1.226194
 50
325.188944
 51
34.811056
  0
LINE
  8
LC-003-002-----0
 62
     2
  6
DASHED
 10
278.827118
 20
-47.726757
 11
268.421600
 21
-47.726757
  0
ENDSEC
  0
EOF
