  0
SECTION
  2
HEADER
  9
$LIMMIN
 10
87.410034
 20
282.774475
  9
$LIMMAX
 10
351.607727
 20
533.215210
  9
$EXTMIN
 10
87.410034
 20
282.774475
  9
$EXTMAX
 10
351.607727
 20
533.215210
  0
ENDSEC
  0
SECTION
  2
TABLES
  0
TABLE
  2
LTYPE
 70
     3
  0
LTYPE
  2
CONTINUOUS
 70
    64
  3
Ausgezogene Linie
 72
    65
 73
     0
 40
0.0
  0
LTYPE
  2
DASHED
 70
    64
  3
__ __ __ __ __ __ __ __ __ __ __ __ __ __ __
 72
    65
 73
     2
 40
0.75
 49
0.5
 49
-0.25
  0
LTYPE
  2
DASHDOT
 70
    64
  3
__ . __ . __ . __ . __ . __ . __ . __ . __ . __
 72
    65
 73
     4
 40
1.0
 49
0.5
 49
-0.25
 49
0.0
 49
-0.25
  0
ENDTAB
  0
TABLE
  2
LAYER
 70
     4
  0
LAYER
  2
LC-003-002-----0
 70
    64
 62
     7
  6
CONTINUOUS
  0
LAYER
  2
LC-004-006-----0
 70
    64
 62
     7
  6
CONTINUOUS
  0
LAYER
  2
LC-006-012-----0
 70
    64
 62
     7
  6
CONTINUOUS
  0
LAYER
  2
LC-008-003-----0
 70
    64
 62
     7
  6
CONTINUOUS
  0
ENDTAB
  0
TABLE
  2
STYLE
 70
     1
  0
STYLE
  2
TXT8
 70
    64
 40
0.0
 41
1.0
 50
0.0
 71
     0
 42
3.500000
  3
TXT8
  4

  0
ENDTAB
  0
ENDSEC
  0
SECTION
  2
BLOCKS
  0
ENDSEC
  0
SECTION
  2
ENTITIES
  0
LINE
  8
LC-003-002-----0
 62
     1
  6
CONTINUOUS
 10
87.410034
 20
526.808167
 11
87.410034
 21
496.465851
  0
LINE
  8
LC-003-002-----0
 62
     1
  6
CONTINUOUS
 10
87.410034
 20
444.808167
 11
173.410034
 21
444.808167
  0
LINE
  8
LC-003-002-----0
 62
     1
  6
CONTINUOUS
 10
163.410034
 20
526.808167
 11
87.410034
 21
526.808167
  0
LINE
  8
LC-003-002-----0
 62
     1
  6
CONTINUOUS
 10
173.410034
 20
444.808167
 11
173.410034
 21
516.808167
  0
LINE
  8
LC-004-006-----0
 62
     2
  6
DASHDOT
 10
112.410034
 20
513.228149
 11
112.410034
 21
456.215668
  0
LINE
  8
LC-004-006-----0
 62
     2
  6
DASHDOT
 10
87.410034
 20
484.808167
 11
140.139404
 21
484.808167
  0
CIRCLE
  8
LC-003-002-----0
 62
     1
  6
CONTINUOUS
 10
112.410034
 20
484.808167
 40
15.000000
  0
ARC
  8
LC-003-002-----0
 62
     1
  6
CONTINUOUS
 10
112.410034
 20
484.808167
 40
23.500000
 50
205.000004
 51
154.999996
  0
ARC
  8
LC-003-002-----0
 62
     1
  6
CONTINUOUS
 10
112.410034
 20
484.808167
 40
20.000000
 50
205.000004
 51
154.999996
  0
LINE
  8
LC-003-002-----0
 62
     1
  6
CONTINUOUS
 10
98.815414
 20
491.147430
 11
91.111801
 21
494.739685
  0
LINE
  8
LC-003-002-----0
 62
     1
  6
CONTINUOUS
 10
98.815414
 20
478.468872
 11
91.111801
 21
474.876617
  0
LINE
  8
LC-003-002-----0
 62
     1
  6
CONTINUOUS
 10
87.410034
 20
473.150452
 11
87.410034
 21
444.808167
  0
LINE
  8
LC-004-006-----0
 62
     2
  6
DASHDOT
 10
146.410034
 20
533.215210
 11
146.410034
 21
439.013733
  0
LINE
  8
LC-006-012-----0
 62
     2
  6
DASHED
 10
154.410034
 20
478.808167
 11
154.410034
 21
444.808167
  0
LINE
  8
LC-006-012-----0
 62
     2
  6
DASHED
 10
138.410034
 20
478.808167
 11
138.410034
 21
444.808167
  0
LINE
  8
LC-006-012-----0
 62
     2
  6
DASHED
 10
153.160034
 20
513.808167
 11
153.160034
 21
444.808167
  0
LINE
  8
LC-006-012-----0
 62
     2
  6
DASHED
 10
139.660034
 20
513.808167
 11
139.660034
 21
444.808167
  0
LINE
  8
LC-006-012-----0
 62
     2
  6
DASHED
 10
138.410034
 20
478.808167
 11
154.410034
 21
478.808167
  0
LINE
  8
LC-006-012-----0
 62
     2
  6
DASHED
 10
136.410034
 20
513.808167
 11
156.410034
 21
513.808167
  0
LINE
  8
LC-006-012-----0
 62
     2
  6
DASHED
 10
156.410034
 20
526.808167
 11
156.410034
 21
513.808167
  0
LINE
  8
LC-006-012-----0
 62
     2
  6
DASHED
 10
136.410034
 20
526.808167
 11
136.410034
 21
513.808167
  0
LINE
  8
LC-003-002-----0
 62
     1
  6
CONTINUOUS
 10
91.111801
 20
494.739685
 11
87.410034
 21
496.465851
  0
LINE
  8
LC-003-002-----0
 62
     1
  6
CONTINUOUS
 10
91.111801
 20
474.876617
 11
87.410034
 21
473.150452
  0
LINE
  8
LC-003-002-----0
 62
     1
  6
CONTINUOUS
 10
87.410034
 20
381.793304
 11
87.410034
 21
302.793304
  0
LINE
  8
LC-003-002-----0
 62
     1
  6
CONTINUOUS
 10
87.410034
 20
302.793304
 11
173.410034
 21
302.793304
  0
LINE
  8
LC-003-002-----0
 62
     1
  6
CONTINUOUS
 10
173.410034
 20
381.793304
 11
173.410034
 21
302.793304
  0
LINE
  8
LC-003-002-----0
 62
     1
  6
CONTINUOUS
 10
87.410034
 20
381.793304
 11
173.410034
 21
381.793304
  0
LINE
  8
LC-006-012-----0
 62
     2
  6
DASHED
 10
135.910034
 20
381.793304
 11
135.910034
 21
302.793304
  0
LINE
  8
LC-004-006-----0
 62
     2
  6
DASHDOT
 10
133.315094
 20
363.293304
 11
159.339340
 21
363.293304
  0
LINE
  8
LC-004-006-----0
 62
     2
  6
DASHDOT
 10
146.410034
 20
376.931580
 11
146.410034
 21
349.360443
  0
CIRCLE
  8
LC-003-002-----0
 62
     1
  6
CONTINUOUS
 10
146.410034
 20
363.293304
 40
10.000000
  0
CIRCLE
  8
LC-003-002-----0
 62
     1
  6
CONTINUOUS
 10
146.410034
 20
363.293304
 40
6.750000
  0
ARC
  8
LC-008-003-----0
 62
     2
  6
CONTINUOUS
 10
146.410034
 20
363.293304
 40
8.000000
 50
81.251664
 51
8.600787
  0
LINE
  8
LC-004-006-----0
 62
     2
  6
DASHDOT
 10
133.315094
 20
321.293304
 11
159.339340
 21
321.293304
  0
LINE
  8
LC-004-006-----0
 62
     2
  6
DASHDOT
 10
146.410034
 20
307.655029
 11
146.410034
 21
335.226135
  0
CIRCLE
  8
LC-003-002-----0
 62
     1
  6
CONTINUOUS
 10
146.410034
 20
321.293304
 40
10.000000
  0
CIRCLE
  8
LC-003-002-----0
 62
     1
  6
CONTINUOUS
 10
146.410034
 20
321.293304
 40
6.750000
  0
ARC
  8
LC-008-003-----0
 62
     2
  6
CONTINUOUS
 10
146.410034
 20
321.293304
 40
8.000000
 50
351.399213
 51
278.748336
  0
LINE
  8
LC-006-012-----0
 62
     2
  6
DASHED
 10
98.815414
 20
381.793304
 11
98.815414
 21
302.793304
  0
LINE
  8
LC-006-012-----0
 62
     2
  6
DASHED
 10
91.111801
 20
381.793304
 11
91.111801
 21
302.793304
  0
LINE
  8
LC-004-006-----0
 62
     2
  6
DASHDOT
 10
112.410034
 20
399.839508
 11
112.410034
 21
282.774475
  0
LINE
  8
LC-003-002-----0
 62
     1
  6
CONTINUOUS
 10
127.410034
 20
396.787201
 11
127.410034
 21
381.793304
  0
LINE
  8
LC-008-003-----0
 62
     2
  6
CONTINUOUS
 10
97.410034
 20
395.539520
 11
106.480621
 21
394.526367
  0
LINE
  8
LC-008-003-----0
 62
     2
  6
CONTINUOUS
 10
106.480621
 20
394.526367
 11
121.596931
 21
397.185608
  0
LINE
  8
LC-008-003-----0
 62
     2
  6
CONTINUOUS
 10
121.596931
 20
397.185608
 11
127.410034
 21
396.787201
  0
LINE
  8
LC-008-003-----0
 62
     2
  6
CONTINUOUS
 10
97.410034
 20
288.699768
 11
105.472870
 21
287.318207
  0
LINE
  8
LC-008-003-----0
 62
     2
  6
CONTINUOUS
 10
105.472870
 20
287.318207
 11
120.589180
 21
289.217682
  0
LINE
  8
LC-008-003-----0
 62
     2
  6
CONTINUOUS
 10
120.589180
 20
289.217682
 11
127.410034
 21
288.380524
  0
LINE
  8
LC-003-002-----0
 62
     1
  6
CONTINUOUS
 10
97.410034
 20
395.539520
 11
97.410034
 21
381.793304
  0
LINE
  8
LC-006-012-----0
 62
     2
  6
DASHED
 10
97.410034
 20
381.793304
 11
97.410034
 21
302.793304
  0
LINE
  8
LC-006-012-----0
 62
     2
  6
DASHED
 10
127.410034
 20
381.793304
 11
127.410034
 21
302.793304
  0
LINE
  8
LC-003-002-----0
 62
     1
  6
CONTINUOUS
 10
127.410034
 20
302.793304
 11
127.410034
 21
288.380524
  0
LINE
  8
LC-003-002-----0
 62
     1
  6
CONTINUOUS
 10
97.410034
 20
302.793304
 11
97.410034
 21
288.699768
  0
LINE
  8
LC-003-002-----0
 62
     1
  6
CONTINUOUS
 10
251.176498
 20
444.808167
 11
330.176483
 21
444.808167
  0
LINE
  8
LC-003-002-----0
 62
     1
  6
CONTINUOUS
 10
330.176483
 20
444.808167
 11
330.176483
 21
526.808167
  0
LINE
  8
LC-003-002-----0
 62
     1
  6
CONTINUOUS
 10
251.176498
 20
526.808167
 11
330.176483
 21
526.808167
  0
LINE
  8
LC-003-002-----0
 62
     1
  6
CONTINUOUS
 10
251.176498
 20
444.808167
 11
251.176498
 21
526.808167
  0
LINE
  8
LC-004-006-----0
 62
     2
  6
DASHDOT
 10
311.676483
 20
533.215210
 11
311.676483
 21
439.013733
  0
LINE
  8
LC-004-006-----0
 62
     2
  6
DASHDOT
 10
269.676483
 20
533.215210
 11
269.676483
 21
439.013733
  0
LINE
  8
LC-006-012-----0
 62
     2
  6
DASHED
 10
277.676483
 20
478.808167
 11
277.676483
 21
444.808167
  0
LINE
  8
LC-006-012-----0
 62
     2
  6
DASHED
 10
261.676483
 20
478.808167
 11
261.676483
 21
444.808167
  0
LINE
  8
LC-006-012-----0
 62
     2
  6
DASHED
 10
276.426483
 20
513.808167
 11
276.426483
 21
444.808167
  0
LINE
  8
LC-006-012-----0
 62
     2
  6
DASHED
 10
262.926483
 20
513.808167
 11
262.926483
 21
444.808167
  0
LINE
  8
LC-006-012-----0
 62
     2
  6
DASHED
 10
261.676483
 20
478.808167
 11
277.676483
 21
478.808167
  0
LINE
  8
LC-006-012-----0
 62
     2
  6
DASHED
 10
259.676483
 20
513.808167
 11
279.676483
 21
513.808167
  0
LINE
  8
LC-006-012-----0
 62
     2
  6
DASHED
 10
279.676483
 20
526.808167
 11
279.676483
 21
513.808167
  0
LINE
  8
LC-006-012-----0
 62
     2
  6
DASHED
 10
259.676483
 20
526.808167
 11
259.676483
 21
513.808167
  0
LINE
  8
LC-006-012-----0
 62
     2
  6
DASHED
 10
319.676483
 20
478.808167
 11
319.676483
 21
444.808167
  0
LINE
  8
LC-006-012-----0
 62
     2
  6
DASHED
 10
303.676483
 20
478.808167
 11
303.676483
 21
444.808167
  0
LINE
  8
LC-006-012-----0
 62
     2
  6
DASHED
 10
318.426483
 20
513.808167
 11
318.426483
 21
444.808167
  0
LINE
  8
LC-006-012-----0
 62
     2
  6
DASHED
 10
304.926483
 20
513.808167
 11
304.926483
 21
444.808167
  0
LINE
  8
LC-006-012-----0
 62
     2
  6
DASHED
 10
303.676483
 20
478.808167
 11
319.676483
 21
478.808167
  0
LINE
  8
LC-006-012-----0
 62
     2
  6
DASHED
 10
301.676483
 20
513.808167
 11
321.676483
 21
513.808167
  0
LINE
  8
LC-006-012-----0
 62
     2
  6
DASHED
 10
321.676483
 20
526.808167
 11
321.676483
 21
513.808167
  0
LINE
  8
LC-006-012-----0
 62
     2
  6
DASHED
 10
301.676483
 20
526.808167
 11
301.676483
 21
513.808167
  0
LINE
  8
LC-003-002-----0
 62
     1
  6
CONTINUOUS
 10
251.176498
 20
496.465851
 11
330.176483
 21
496.465851
  0
LINE
  8
LC-003-002-----0
 62
     1
  6
CONTINUOUS
 10
251.176498
 20
473.150452
 11
330.176483
 21
473.150452
  0
LINE
  8
LC-003-002-----0
 62
     1
  6
CONTINUOUS
 10
251.176498
 20
494.739685
 11
330.176483
 21
494.739685
  0
LINE
  8
LC-003-002-----0
 62
     1
  6
CONTINUOUS
 10
251.176498
 20
474.876617
 11
330.176483
 21
474.876617
  0
LINE
  8
LC-003-002-----0
 62
     1
  6
CONTINUOUS
 10
251.176498
 20
491.147430
 11
330.176483
 21
491.147430
  0
LINE
  8
LC-003-002-----0
 62
     1
  6
CONTINUOUS
 10
251.176498
 20
478.468872
 11
330.176483
 21
478.468872
  0
LINE
  8
LC-008-003-----0
 62
     2
  6
CONTINUOUS
 10
346.614777
 20
469.808167
 11
347.951904
 21
479.485992
  0
LINE
  8
LC-008-003-----0
 62
     2
  6
CONTINUOUS
 10
347.951904
 20
479.485992
 11
345.108490
 21
491.429871
  0
LINE
  8
LC-008-003-----0
 62
     2
  6
CONTINUOUS
 10
345.108490
 20
491.429871
 11
345.673553
 21
499.808167
  0
LINE
  8
LC-008-003-----0
 62
     2
  6
CONTINUOUS
 10
234.337296
 20
469.808167
 11
235.153046
 21
477.342224
  0
LINE
  8
LC-008-003-----0
 62
     2
  6
CONTINUOUS
 10
235.153046
 20
477.342224
 11
231.903412
 21
490.204865
  0
LINE
  8
LC-008-003-----0
 62
     2
  6
CONTINUOUS
 10
231.903412
 20
490.204865
 11
232.621017
 21
499.808167
  0
LINE
  8
LC-004-006-----0
 62
     2
  6
DASHDOT
 10
227.615784
 20
484.808167
 11
351.607727
 21
484.808167
  0
LINE
  8
LC-003-002-----0
 62
     1
  6
CONTINUOUS
 10
232.621017
 20
499.808167
 11
251.176498
 21
499.808167
  0
LINE
  8
LC-006-012-----0
 62
     2
  6
DASHED
 10
251.176498
 20
499.808167
 11
330.176483
 21
499.808167
  0
LINE
  8
LC-003-002-----0
 62
     1
  6
CONTINUOUS
 10
234.337296
 20
469.808167
 11
251.176498
 21
469.808167
  0
LINE
  8
LC-006-012-----0
 62
     2
  6
DASHED
 10
251.176498
 20
469.808167
 11
330.176483
 21
469.808167
  0
LINE
  8
LC-003-002-----0
 62
     1
  6
CONTINUOUS
 10
330.176483
 20
469.808167
 11
346.614777
 21
469.808167
  0
LINE
  8
LC-003-002-----0
 62
     1
  6
CONTINUOUS
 10
330.176483
 20
499.808167
 11
345.673553
 21
499.808167
  0
LINE
  8
LC-006-012-----0
 62
     2
  6
DASHED
 10
284.176483
 20
514.508179
 11
284.176483
 21
526.808167
  0
LINE
  8
LC-006-012-----0
 62
     2
  6
DASHED
 10
107.910034
 20
514.508179
 11
107.910034
 21
526.808167
  0
LINE
  8
LC-006-012-----0
 62
     2
  6
DASHED
 10
112.410034
 20
514.008179
 11
112.410034
 21
508.508118
  0
LINE
  8
LC-006-012-----0
 62
     2
  6
DASHED
 10
116.410034
 20
514.008179
 11
116.410034
 21
508.508118
  0
LINE
  8
LC-006-012-----0
 62
     2
  6
DASHED
 10
111.910034
 20
508.758148
 11
111.910034
 21
514.008179
  0
LINE
  8
LC-006-012-----0
 62
     2
  6
DASHED
 10
116.910034
 20
514.008179
 11
116.910034
 21
508.758118
  0
LINE
  8
LC-006-012-----0
 62
     2
  6
DASHED
 10
116.960030
 20
516.508179
 11
111.860031
 21
516.508179
  0
LINE
  8
LC-006-012-----0
 62
     2
  6
DASHED
 10
115.910034
 20
505.408173
 11
112.910034
 21
505.408173
  0
LINE
  8
LC-006-012-----0
 62
     2
  6
DASHED
 10
112.160034
 20
508.508148
 11
111.910034
 21
508.758148
  0
LINE
  8
LC-006-012-----0
 62
     2
  6
DASHED
 10
116.910034
 20
508.758148
 11
116.660034
 21
508.508148
  0
LINE
  8
LC-006-012-----0
 62
     2
  6
DASHED
 10
116.910034
 20
508.758148
 11
111.910034
 21
508.758148
  0
LINE
  8
LC-006-012-----0
 62
     2
  6
DASHED
 10
120.910034
 20
514.508179
 11
107.910034
 21
514.508179
  0
LINE
  8
LC-006-012-----0
 62
     2
  6
DASHED
 10
111.110031
 20
516.361267
 11
111.110031
 21
514.508179
  0
LINE
  8
LC-006-012-----0
 62
     2
  6
DASHED
 10
117.710030
 20
516.361267
 11
117.710030
 21
514.508179
  0
LINE
  8
LC-006-012-----0
 62
     2
  6
DASHED
 10
112.610031
 20
516.361267
 11
112.610031
 21
514.508179
  0
LINE
  8
LC-006-012-----0
 62
     2
  6
DASHED
 10
116.210030
 20
516.361267
 11
116.210030
 21
514.508179
  0
LINE
  8
LC-006-012-----0
 62
     2
  6
DASHED
 10
116.660034
 20
508.508148
 11
112.160034
 21
508.508148
  0
ARC
  8
LC-006-012-----0
 62
     2
  6
DASHED
 10
114.410034
 20
505.408173
 40
11.100000
 50
80.667580
 51
99.332418
  0
ARC
  8
LC-006-012-----0
 62
     2
  6
DASHED
 10
116.960030
 20
514.508179
 40
1.999103
 50
67.965286
 51
112.034712
  0
LINE
  8
LC-006-012-----0
 62
     2
  6
DASHED
 10
112.660034
 20
508.508148
 11
112.660034
 21
505.658173
  0
ARC
  8
LC-006-012-----0
 62
     2
  6
DASHED
 10
111.860031
 20
514.508179
 40
1.999103
 50
67.965286
 51
112.034712
  0
LINE
  8
LC-006-012-----0
 62
     2
  6
DASHED
 10
116.910034
 20
514.008179
 11
111.910034
 21
514.008179
  0
LINE
  8
LC-006-012-----0
 62
     2
  6
DASHED
 10
112.210030
 20
514.508179
 11
112.210030
 21
514.008179
  0
LINE
  8
LC-006-012-----0
 62
     2
  6
DASHED
 10
116.610031
 20
514.508179
 11
116.610031
 21
514.008179
  0
LINE
  8
LC-006-012-----0
 62
     2
  6
DASHED
 10
116.160034
 20
508.508148
 11
116.160034
 21
505.658173
  0
ARC
  8
LC-006-012-----0
 62
     2
  6
DASHED
 10
112.910034
 20
505.658173
 40
0.250000
 50
180.000009
 51
269.999997
  0
ARC
  8
LC-006-012-----0
 62
     2
  6
DASHED
 10
115.910034
 20
505.658173
 40
0.250000
 50
269.999997
 51
0.000000
  0
LINE
  8
LC-006-012-----0
 62
     2
  6
DASHED
 10
120.910034
 20
514.508179
 11
120.910034
 21
526.808167
  0
LINE
  8
LC-004-006-----0
 62
     2
  6
DASHDOT
 10
114.410034
 20
504.041199
 11
114.410034
 21
529.766602
  0
LINE
  8
LC-004-006-----0
 62
     2
  6
DASHDOT
 10
114.410034
 20
333.446106
 11
114.410034
 21
350.900970
  0
LINE
  8
LC-006-012-----0
 62
     2
  6
DASHED
 10
288.676483
 20
514.008179
 11
288.676483
 21
508.508118
  0
LINE
  8
LC-006-012-----0
 62
     2
  6
DASHED
 10
292.676483
 20
514.008179
 11
292.676483
 21
508.508118
  0
LINE
  8
LC-006-012-----0
 62
     2
  6
DASHED
 10
288.176483
 20
508.758148
 11
288.176483
 21
514.008179
  0
LINE
  8
LC-006-012-----0
 62
     2
  6
DASHED
 10
293.176483
 20
514.008179
 11
293.176483
 21
508.758118
  0
LINE
  8
LC-006-012-----0
 62
     2
  6
DASHED
 10
293.226501
 20
516.508179
 11
288.126495
 21
516.508179
  0
LINE
  8
LC-006-012-----0
 62
     2
  6
DASHED
 10
292.176483
 20
505.408173
 11
289.176483
 21
505.408173
  0
LINE
  8
LC-006-012-----0
 62
     2
  6
DASHED
 10
288.426483
 20
508.508148
 11
288.176483
 21
508.758148
  0
LINE
  8
LC-006-012-----0
 62
     2
  6
DASHED
 10
293.176483
 20
508.758148
 11
292.926483
 21
508.508148
  0
LINE
  8
LC-006-012-----0
 62
     2
  6
DASHED
 10
293.176483
 20
508.758148
 11
288.176483
 21
508.758148
  0
LINE
  8
LC-006-012-----0
 62
     2
  6
DASHED
 10
297.176483
 20
514.508179
 11
284.176483
 21
514.508179
  0
LINE
  8
LC-006-012-----0
 62
     2
  6
DASHED
 10
287.376495
 20
516.361267
 11
287.376495
 21
514.508179
  0
LINE
  8
LC-006-012-----0
 62
     2
  6
DASHED
 10
293.976501
 20
516.361267
 11
293.976501
 21
514.508179
  0
LINE
  8
LC-006-012-----0
 62
     2
  6
DASHED
 10
288.876495
 20
516.361267
 11
288.876495
 21
514.508179
  0
LINE
  8
LC-006-012-----0
 62
     2
  6
DASHED
 10
292.476501
 20
516.361267
 11
292.476501
 21
514.508179
  0
LINE
  8
LC-006-012-----0
 62
     2
  6
DASHED
 10
292.926483
 20
508.508148
 11
288.426483
 21
508.508148
  0
ARC
  8
LC-006-012-----0
 62
     2
  6
DASHED
 10
290.676483
 20
505.408173
 40
11.100000
 50
80.667580
 51
99.332418
  0
ARC
  8
LC-006-012-----0
 62
     2
  6
DASHED
 10
293.226501
 20
514.508179
 40
1.999103
 50
67.965286
 51
112.034712
  0
LINE
  8
LC-006-012-----0
 62
     2
  6
DASHED
 10
288.926483
 20
508.508148
 11
288.926483
 21
505.658173
  0
ARC
  8
LC-006-012-----0
 62
     2
  6
DASHED
 10
288.126495
 20
514.508179
 40
1.999103
 50
67.965286
 51
112.034712
  0
LINE
  8
LC-006-012-----0
 62
     2
  6
DASHED
 10
293.176483
 20
514.008179
 11
288.176483
 21
514.008179
  0
LINE
  8
LC-006-012-----0
 62
     2
  6
DASHED
 10
288.476501
 20
514.508179
 11
288.476501
 21
514.008179
  0
LINE
  8
LC-006-012-----0
 62
     2
  6
DASHED
 10
292.876495
 20
514.508179
 11
292.876495
 21
514.008179
  0
LINE
  8
LC-006-012-----0
 62
     2
  6
DASHED
 10
292.426483
 20
508.508148
 11
292.426483
 21
505.658173
  0
ARC
  8
LC-006-012-----0
 62
     2
  6
DASHED
 10
289.176483
 20
505.658173
 40
0.250000
 50
180.000009
 51
269.999997
  0
ARC
  8
LC-006-012-----0
 62
     2
  6
DASHED
 10
292.176483
 20
505.658173
 40
0.250000
 50
269.999997
 51
0.000000
  0
LINE
  8
LC-006-012-----0
 62
     2
  6
DASHED
 10
297.176483
 20
514.508179
 11
297.176483
 21
526.808167
  0
LINE
  8
LC-004-006-----0
 62
     2
  6
DASHDOT
 10
290.676483
 20
504.041199
 11
290.676483
 21
529.766602
  0
CIRCLE
  8
LC-003-002-----0
 62
     1
  6
CONTINUOUS
 10
114.410034
 20
342.293304
 40
6.500000
  0
LINE
  8
LC-003-002-----0
 62
     1
  6
CONTINUOUS
 10
111.550034
 20
343.944519
 11
114.410034
 21
345.595734
  0
LINE
  8
LC-003-002-----0
 62
     1
  6
CONTINUOUS
 10
114.410034
 20
338.990845
 11
117.270035
 21
340.642059
  0
LINE
  8
LC-003-002-----0
 62
     1
  6
CONTINUOUS
 10
111.550034
 20
340.642059
 11
111.550034
 21
343.944519
  0
LINE
  8
LC-003-002-----0
 62
     1
  6
CONTINUOUS
 10
117.270035
 20
340.642059
 11
117.270035
 21
343.944519
  0
LINE
  8
LC-003-002-----0
 62
     1
  6
CONTINUOUS
 10
114.410034
 20
338.990845
 11
111.550034
 21
340.642059
  0
LINE
  8
LC-003-002-----0
 62
     1
  6
CONTINUOUS
 10
117.270035
 20
343.944519
 11
114.410034
 21
345.595734
  0
CIRCLE
  8
LC-003-002-----0
 62
     1
  6
CONTINUOUS
 10
114.410034
 20
342.293304
 40
2.860000
  0
LINE
  8
LC-004-006-----0
 62
     2
  6
DASHDOT
 10
106.002274
 20
342.293304
 11
123.259293
 21
342.293304
  0
LINE
  8
LC-003-002-----0
 62
     1
  6
CONTINUOUS
 10
173.410034
 20
516.808167
 11
163.410034
 21
526.808167
  0
LINE
  8
LC-003-002-----0
 62
     1
  6
CONTINUOUS
 10
163.410034
 20
381.793304
 11
163.410034
 21
302.793304
  0
LINE
  8
LC-006-012-----0
 62
     2
  6
DASHED
 10
251.176498
 20
516.808167
 11
330.176483
 21
516.808167
  0
ENDSEC
  0
EOF
