  0
SECTION
  2
HEADER
  9
$LIMMIN
 10
487.487976
 20
113.115013
  9
$LIMMAX
 10
850.744324
 20
475.010345
  9
$EXTMIN
 10
487.487976
 20
113.115013
  9
$EXTMAX
 10
850.744324
 20
475.010345
  0
ENDSEC
  0
SECTION
  2
TABLES
  0
TABLE
  2
LTYPE
 70
     3
  0
LTYPE
  2
CONTINUOUS
 70
    64
  3
Ausgezogene Linie
 72
    65
 73
     0
 40
0.0
  0
LTYPE
  2
DASHED
 70
    64
  3
__ __ __ __ __ __ __ __ __ __ __ __ __ __ __
 72
    65
 73
     2
 40
0.75
 49
0.5
 49
-0.25
  0
LTYPE
  2
DASHDOT
 70
    64
  3
__ . __ . __ . __ . __ . __ . __ . __ . __ . __
 72
    65
 73
     4
 40
1.0
 49
0.5
 49
-0.25
 49
0.0
 49
-0.25
  0
ENDTAB
  0
TABLE
  2
LAYER
 70
     4
  0
LAYER
  2
LC-003-002-----0
 70
    64
 62
     7
  6
CONTINUOUS
  0
LAYER
  2
LC-004-006-----0
 70
    64
 62
     7
  6
CONTINUOUS
  0
LAYER
  2
LC-006-012-----0
 70
    64
 62
     7
  6
CONTINUOUS
  0
LAYER
  2
LC-008-003-----0
 70
    64
 62
     7
  6
CONTINUOUS
  0
ENDTAB
  0
TABLE
  2
STYLE
 70
     1
  0
STYLE
  2
TXT8
 70
    64
 40
0.0
 41
1.0
 50
0.0
 71
     0
 42
3.500000
  3
TXT8
  4

  0
ENDTAB
  0
ENDSEC
  0
SECTION
  2
BLOCKS
  0
ENDSEC
  0
SECTION
  2
ENTITIES
  0
LINE
  8
LC-003-002-----0
 62
     1
  6
CONTINUOUS
 10
487.488007
 20
467.079834
 11
487.488007
 21
419.799500
  0
LINE
  8
LC-003-002-----0
 62
     1
  6
CONTINUOUS
 10
487.488007
 20
352.079834
 11
614.488037
 21
352.079834
  0
LINE
  8
LC-003-002-----0
 62
     1
  6
CONTINUOUS
 10
600.488037
 20
467.079834
 11
487.487976
 21
467.079834
  0
LINE
  8
LC-003-002-----0
 62
     1
  6
CONTINUOUS
 10
614.488037
 20
352.079834
 11
614.488037
 21
453.079834
  0
LINE
  8
LC-004-006-----0
 62
     2
  6
DASHDOT
 10
525.488037
 20
445.998230
 11
525.488037
 21
356.887695
  0
LINE
  8
LC-004-006-----0
 62
     2
  6
DASHDOT
 10
487.488007
 20
402.079834
 11
569.548157
 21
402.079834
  0
CIRCLE
  8
LC-003-002-----0
 62
     1
  6
CONTINUOUS
 10
525.488037
 20
402.079834
 40
25.000000
  0
ARC
  8
LC-003-002-----0
 62
     1
  6
CONTINUOUS
 10
525.488037
 20
402.079834
 40
37.500000
 50
205.000004
 51
154.999996
  0
ARC
  8
LC-003-002-----0
 62
     1
  6
CONTINUOUS
 10
525.488037
 20
402.079834
 40
34.000000
 50
205.000004
 51
154.999996
  0
LINE
  8
LC-003-002-----0
 62
     1
  6
CONTINUOUS
 10
502.830322
 20
412.645294
 11
491.501465
 21
417.928009
  0
LINE
  8
LC-003-002-----0
 62
     1
  6
CONTINUOUS
 10
502.830322
 20
391.514374
 11
491.501465
 21
386.231628
  0
LINE
  8
LC-003-002-----0
 62
     1
  6
CONTINUOUS
 10
487.488007
 20
384.360138
 11
487.488007
 21
352.079834
  0
LINE
  8
LC-004-006-----0
 62
     2
  6
DASHDOT
 10
575.488037
 20
475.010345
 11
575.488037
 21
344.641754
  0
LINE
  8
LC-006-012-----0
 62
     2
  6
DASHED
 10
585.488037
 20
395.079834
 11
585.488037
 21
352.079834
  0
LINE
  8
LC-006-012-----0
 62
     2
  6
DASHED
 10
565.488037
 20
395.079834
 11
565.488037
 21
352.079834
  0
LINE
  8
LC-006-012-----0
 62
     2
  6
DASHED
 10
584.238037
 20
450.079834
 11
584.238037
 21
352.079834
  0
LINE
  8
LC-006-012-----0
 62
     2
  6
DASHED
 10
566.738037
 20
450.079834
 11
566.738037
 21
352.079834
  0
LINE
  8
LC-006-012-----0
 62
     2
  6
DASHED
 10
565.488037
 20
395.079834
 11
585.488037
 21
395.079834
  0
LINE
  8
LC-006-012-----0
 62
     2
  6
DASHED
 10
562.488037
 20
450.079834
 11
588.488037
 21
450.079834
  0
LINE
  8
LC-006-012-----0
 62
     2
  6
DASHED
 10
588.488037
 20
467.079834
 11
588.488037
 21
450.079834
  0
LINE
  8
LC-006-012-----0
 62
     2
  6
DASHED
 10
562.488037
 20
467.079834
 11
562.488037
 21
450.079834
  0
LINE
  8
LC-003-002-----0
 62
     1
  6
CONTINUOUS
 10
491.501465
 20
417.928009
 11
487.488007
 21
419.799500
  0
LINE
  8
LC-003-002-----0
 62
     1
  6
CONTINUOUS
 10
491.501465
 20
386.231628
 11
487.488007
 21
384.360138
  0
LINE
  8
LC-003-002-----0
 62
     1
  6
CONTINUOUS
 10
487.488007
 20
268.209167
 11
487.488007
 21
155.209137
  0
LINE
  8
LC-003-002-----0
 62
     1
  6
CONTINUOUS
 10
487.488007
 20
155.209152
 11
614.488037
 21
155.209152
  0
LINE
  8
LC-003-002-----0
 62
     1
  6
CONTINUOUS
 10
614.488037
 20
268.209167
 11
614.488037
 21
155.209137
  0
LINE
  8
LC-003-002-----0
 62
     1
  6
CONTINUOUS
 10
487.488007
 20
268.209167
 11
614.488037
 21
268.209167
  0
LINE
  8
LC-006-012-----0
 62
     2
  6
DASHED
 10
491.501465
 20
268.209167
 11
491.501465
 21
155.209137
  0
LINE
  8
LC-004-006-----0
 62
     2
  6
DASHDOT
 10
558.095764
 20
242.709152
 11
592.642334
 21
242.709152
  0
LINE
  8
LC-004-006-----0
 62
     2
  6
DASHDOT
 10
575.488037
 20
259.642761
 11
575.488037
 21
225.259079
  0
ARC
  8
LC-008-003-----0
 62
     2
  6
CONTINUOUS
 10
575.488037
 20
242.709152
 40
10.000000
 50
82.097720
 51
12.320502
  0
CIRCLE
  8
LC-003-002-----0
 62
     1
  6
CONTINUOUS
 10
575.488037
 20
242.709152
 40
8.750000
  0
CIRCLE
  8
LC-003-002-----0
 62
     1
  6
CONTINUOUS
 10
575.488037
 20
242.709152
 40
13.000000
  0
LINE
  8
LC-004-006-----0
 62
     2
  6
DASHDOT
 10
558.095764
 20
180.709152
 11
592.642334
 21
180.709152
  0
LINE
  8
LC-004-006-----0
 62
     2
  6
DASHDOT
 10
575.488037
 20
163.775543
 11
575.488037
 21
198.159256
  0
ARC
  8
LC-008-003-----0
 62
     2
  6
CONTINUOUS
 10
575.488037
 20
180.709152
 40
10.000000
 50
347.679498
 51
277.902280
  0
CIRCLE
  8
LC-003-002-----0
 62
     1
  6
CONTINUOUS
 10
575.488037
 20
180.709152
 40
8.750000
  0
CIRCLE
  8
LC-003-002-----0
 62
     1
  6
CONTINUOUS
 10
575.488037
 20
180.709152
 40
13.000000
  0
LINE
  8
LC-006-012-----0
 62
     2
  6
DASHED
 10
502.830322
 20
268.209167
 11
502.830322
 21
155.209137
  0
LINE
  8
LC-006-012-----0
 62
     2
  6
DASHED
 10
562.988037
 20
268.209167
 11
562.988037
 21
155.209137
  0
LINE
  8
LC-003-002-----0
 62
     1
  6
CONTINUOUS
 10
500.488007
 20
293.688477
 11
500.488007
 21
268.209167
  0
LINE
  8
LC-004-006-----0
 62
     2
  6
DASHDOT
 10
525.488037
 20
302.034973
 11
525.488037
 21
113.115013
  0
LINE
  8
LC-008-003-----0
 62
     2
  6
CONTINUOUS
 10
500.488007
 20
293.688477
 11
511.557373
 21
295.113342
  0
LINE
  8
LC-008-003-----0
 62
     2
  6
CONTINUOUS
 10
511.557373
 20
295.113342
 11
534.238892
 21
291.041779
  0
LINE
  8
LC-008-003-----0
 62
     2
  6
CONTINUOUS
 10
534.238892
 20
291.041779
 11
550.488037
 21
292.266876
  0
LINE
  8
LC-008-003-----0
 62
     2
  6
CONTINUOUS
 10
500.488007
 20
122.203850
 11
512.097412
 21
119.629501
  0
LINE
  8
LC-008-003-----0
 62
     2
  6
CONTINUOUS
 10
512.097412
 20
119.629501
 11
538.019165
 21
123.701057
  0
LINE
  8
LC-008-003-----0
 62
     2
  6
CONTINUOUS
 10
538.019165
 20
123.701057
 11
550.488037
 21
121.296204
  0
LINE
  8
LC-003-002-----0
 62
     1
  6
CONTINUOUS
 10
500.488007
 20
155.209152
 11
500.488007
 21
122.203857
  0
LINE
  8
LC-003-002-----0
 62
     1
  6
CONTINUOUS
 10
550.488037
 20
155.209152
 11
550.488037
 21
121.296211
  0
LINE
  8
LC-006-012-----0
 62
     2
  6
DASHED
 10
500.488007
 20
268.209167
 11
500.488007
 21
155.209137
  0
LINE
  8
LC-003-002-----0
 62
     1
  6
CONTINUOUS
 10
550.488037
 20
292.266876
 11
550.488037
 21
268.209167
  0
LINE
  8
LC-006-012-----0
 62
     2
  6
DASHED
 10
550.488037
 20
268.209167
 11
550.488037
 21
155.209137
  0
LINE
  8
LC-003-002-----0
 62
     1
  6
CONTINUOUS
 10
704.035034
 20
352.079834
 11
817.035034
 21
352.079834
  0
LINE
  8
LC-003-002-----0
 62
     1
  6
CONTINUOUS
 10
817.035034
 20
352.079834
 11
817.035034
 21
467.079834
  0
LINE
  8
LC-003-002-----0
 62
     1
  6
CONTINUOUS
 10
704.035034
 20
467.079834
 11
817.035034
 21
467.079834
  0
LINE
  8
LC-003-002-----0
 62
     1
  6
CONTINUOUS
 10
704.035034
 20
352.079834
 11
704.035034
 21
467.079834
  0
LINE
  8
LC-004-006-----0
 62
     2
  6
DASHDOT
 10
791.535034
 20
475.010345
 11
791.535034
 21
344.641754
  0
LINE
  8
LC-004-006-----0
 62
     2
  6
DASHDOT
 10
729.535034
 20
475.010345
 11
729.535034
 21
344.641754
  0
LINE
  8
LC-006-012-----0
 62
     2
  6
DASHED
 10
739.535034
 20
395.079834
 11
739.535034
 21
352.079834
  0
LINE
  8
LC-006-012-----0
 62
     2
  6
DASHED
 10
719.535034
 20
395.079834
 11
719.535034
 21
352.079834
  0
LINE
  8
LC-006-012-----0
 62
     2
  6
DASHED
 10
738.285034
 20
450.079834
 11
738.285034
 21
352.079834
  0
LINE
  8
LC-006-012-----0
 62
     2
  6
DASHED
 10
720.785034
 20
450.079834
 11
720.785034
 21
352.079834
  0
LINE
  8
LC-006-012-----0
 62
     2
  6
DASHED
 10
719.535034
 20
395.079834
 11
739.535034
 21
395.079834
  0
LINE
  8
LC-006-012-----0
 62
     2
  6
DASHED
 10
716.535034
 20
450.079834
 11
742.535034
 21
450.079834
  0
LINE
  8
LC-006-012-----0
 62
     2
  6
DASHED
 10
742.535034
 20
467.079834
 11
742.535034
 21
450.079834
  0
LINE
  8
LC-006-012-----0
 62
     2
  6
DASHED
 10
716.535034
 20
467.079834
 11
716.535034
 21
450.079834
  0
LINE
  8
LC-004-006-----0
 62
     2
  6
DASHDOT
 10
665.343079
 20
402.079834
 11
850.744324
 21
402.079834
  0
LINE
  8
LC-006-012-----0
 62
     2
  6
DASHED
 10
801.535034
 20
395.079834
 11
801.535034
 21
352.079834
  0
LINE
  8
LC-006-012-----0
 62
     2
  6
DASHED
 10
781.535034
 20
395.079834
 11
781.535034
 21
352.079834
  0
LINE
  8
LC-006-012-----0
 62
     2
  6
DASHED
 10
800.285034
 20
450.079834
 11
800.285034
 21
352.079834
  0
LINE
  8
LC-006-012-----0
 62
     2
  6
DASHED
 10
782.785034
 20
450.079834
 11
782.785034
 21
352.079834
  0
LINE
  8
LC-006-012-----0
 62
     2
  6
DASHED
 10
781.535034
 20
395.079834
 11
801.535034
 21
395.079834
  0
LINE
  8
LC-006-012-----0
 62
     2
  6
DASHED
 10
778.535034
 20
450.079834
 11
804.535034
 21
450.079834
  0
LINE
  8
LC-006-012-----0
 62
     2
  6
DASHED
 10
804.535034
 20
467.079834
 11
804.535034
 21
450.079834
  0
LINE
  8
LC-006-012-----0
 62
     2
  6
DASHED
 10
778.535034
 20
467.079834
 11
778.535034
 21
450.079834
  0
LINE
  8
LC-003-002-----0
 62
     1
  6
CONTINUOUS
 10
704.035034
 20
419.799500
 11
817.035034
 21
419.799500
  0
LINE
  8
LC-003-002-----0
 62
     1
  6
CONTINUOUS
 10
704.035034
 20
417.928009
 11
817.035034
 21
417.928009
  0
LINE
  8
LC-003-002-----0
 62
     1
  6
CONTINUOUS
 10
704.035034
 20
412.645294
 11
817.035034
 21
412.645294
  0
LINE
  8
LC-003-002-----0
 62
     1
  6
CONTINUOUS
 10
704.035034
 20
391.514374
 11
817.035034
 21
391.514374
  0
LINE
  8
LC-003-002-----0
 62
     1
  6
CONTINUOUS
 10
704.035034
 20
384.360138
 11
817.035034
 21
384.360138
  0
LINE
  8
LC-003-002-----0
 62
     1
  6
CONTINUOUS
 10
704.035034
 20
386.231628
 11
817.035034
 21
386.231628
  0
LINE
  8
LC-003-002-----0
 62
     1
  6
CONTINUOUS
 10
675.832275
 20
377.079834
 11
704.035034
 21
377.079834
  0
LINE
  8
LC-008-003-----0
 62
     2
  6
CONTINUOUS
 10
675.832275
 20
377.079834
 11
676.579468
 21
390.036957
  0
LINE
  8
LC-008-003-----0
 62
     2
  6
CONTINUOUS
 10
676.579468
 20
390.036957
 11
674.082520
 21
415.451782
  0
LINE
  8
LC-008-003-----0
 62
     2
  6
CONTINUOUS
 10
674.082520
 20
415.451782
 11
675.224976
 21
427.079834
  0
LINE
  8
LC-008-003-----0
 62
     2
  6
CONTINUOUS
 10
841.690796
 20
377.079834
 11
843.253357
 21
388.625000
  0
LINE
  8
LC-008-003-----0
 62
     2
  6
CONTINUOUS
 10
843.253357
 20
388.625000
 11
843.253357
 21
413.569183
  0
LINE
  8
LC-008-003-----0
 62
     2
  6
CONTINUOUS
 10
843.253357
 20
413.569183
 11
844.180298
 21
427.079834
  0
LINE
  8
LC-003-002-----0
 62
     1
  6
CONTINUOUS
 10
675.224976
 20
427.079834
 11
704.035034
 21
427.079834
  0
LINE
  8
LC-006-012-----0
 62
     2
  6
DASHED
 10
704.035034
 20
427.079834
 11
817.035034
 21
427.079834
  0
LINE
  8
LC-006-012-----0
 62
     2
  6
DASHED
 10
704.035034
 20
377.079834
 11
817.035034
 21
377.079834
  0
LINE
  8
LC-003-002-----0
 62
     1
  6
CONTINUOUS
 10
817.035034
 20
377.079834
 11
841.690796
 21
377.079834
  0
LINE
  8
LC-003-002-----0
 62
     1
  6
CONTINUOUS
 10
817.035034
 20
427.079834
 11
844.180298
 21
427.079834
  0
LINE
  8
LC-006-012-----0
 62
     2
  6
DASHED
 10
530.988037
 20
440.329834
 11
530.988037
 21
447.579834
  0
LINE
  8
LC-006-012-----0
 62
     2
  6
DASHED
 10
524.988037
 20
440.329834
 11
524.988037
 21
447.579834
  0
LINE
  8
LC-006-012-----0
 62
     2
  6
DASHED
 10
530.488037
 20
447.579834
 11
530.488037
 21
440.079834
  0
LINE
  8
LC-006-012-----0
 62
     2
  6
DASHED
 10
525.488037
 20
447.579834
 11
525.488037
 21
440.079834
  0
LINE
  8
LC-006-012-----0
 62
     2
  6
DASHED
 10
531.187988
 20
450.579834
 11
524.916626
 21
450.579834
  0
LINE
  8
LC-006-012-----0
 62
     2
  6
DASHED
 10
535.488037
 20
448.079834
 11
520.488037
 21
448.079834
  0
LINE
  8
LC-006-012-----0
 62
     2
  6
DASHED
 10
529.988037
 20
435.779816
 11
525.988037
 21
435.779816
  0
LINE
  8
LC-006-012-----0
 62
     2
  6
DASHED
 10
531.888000
 20
450.367157
 11
531.888000
 21
448.079834
  0
LINE
  8
LC-006-012-----0
 62
     2
  6
DASHED
 10
524.088013
 20
450.367157
 11
524.088013
 21
448.079834
  0
LINE
  8
LC-006-012-----0
 62
     2
  6
DASHED
 10
530.738037
 20
440.079834
 11
525.238037
 21
440.079834
  0
LINE
  8
LC-006-012-----0
 62
     2
  6
DASHED
 10
530.738037
 20
440.079834
 11
530.988037
 21
440.329834
  0
LINE
  8
LC-006-012-----0
 62
     2
  6
DASHED
 10
525.238037
 20
440.079834
 11
524.988037
 21
440.329834
  0
LINE
  8
LC-006-012-----0
 62
     2
  6
DASHED
 10
530.988037
 20
440.329834
 11
524.988037
 21
440.329834
  0
LINE
  8
LC-006-012-----0
 62
     2
  6
DASHED
 10
530.238037
 20
440.079834
 11
530.238037
 21
436.029816
  0
LINE
  8
LC-006-012-----0
 62
     2
  6
DASHED
 10
525.738037
 20
440.079834
 11
525.738037
 21
436.029816
  0
ARC
  8
LC-006-012-----0
 62
     2
  6
DASHED
 10
529.988037
 20
436.029816
 40
0.250000
 50
269.999997
 51
0.000000
  0
ARC
  8
LC-006-012-----0
 62
     2
  6
DASHED
 10
525.988037
 20
436.029816
 40
0.250000
 50
180.000009
 51
269.999997
  0
LINE
  8
LC-006-012-----0
 62
     2
  6
DASHED
 10
530.988037
 20
447.579834
 11
524.988037
 21
447.579834
  0
LINE
  8
LC-006-012-----0
 62
     2
  6
DASHED
 10
530.238037
 20
447.579834
 11
530.238037
 21
448.079834
  0
LINE
  8
LC-006-012-----0
 62
     2
  6
DASHED
 10
525.738037
 20
447.579834
 11
525.738037
 21
448.079834
  0
LINE
  8
LC-006-012-----0
 62
     2
  6
DASHED
 10
530.488037
 20
448.079834
 11
530.488037
 21
450.367157
  0
LINE
  8
LC-006-012-----0
 62
     2
  6
DASHED
 10
525.488037
 20
448.079834
 11
525.488037
 21
450.367157
  0
ARC
  8
LC-006-012-----0
 62
     2
  6
DASHED
 10
527.988037
 20
435.779816
 40
14.800000
 50
80.275029
 51
99.724969
  0
ARC
  8
LC-006-012-----0
 62
     2
  6
DASHED
 10
524.788025
 20
449.360382
 40
1.226194
 50
55.188943
 51
124.811052
  0
ARC
  8
LC-006-012-----0
 62
     2
  6
DASHED
 10
531.187988
 20
449.360382
 40
1.226194
 50
55.188943
 51
124.811052
  0
LINE
  8
LC-006-012-----0
 62
     2
  6
DASHED
 10
535.488037
 20
467.079834
 11
535.488037
 21
448.079834
  0
LINE
  8
LC-006-012-----0
 62
     2
  6
DASHED
 10
520.488037
 20
467.079834
 11
520.488037
 21
448.079834
  0
LINE
  8
LC-004-006-----0
 62
     2
  6
DASHDOT
 10
527.988037
 20
471.119598
 11
527.988037
 21
434.231964
  0
LINE
  8
LC-006-012-----0
 62
     2
  6
DASHED
 10
763.535034
 20
440.329834
 11
763.535034
 21
447.579834
  0
LINE
  8
LC-006-012-----0
 62
     2
  6
DASHED
 10
757.535034
 20
440.329834
 11
757.535034
 21
447.579834
  0
LINE
  8
LC-006-012-----0
 62
     2
  6
DASHED
 10
763.035034
 20
447.579834
 11
763.035034
 21
440.079834
  0
LINE
  8
LC-006-012-----0
 62
     2
  6
DASHED
 10
758.035034
 20
447.579834
 11
758.035034
 21
440.079834
  0
LINE
  8
LC-006-012-----0
 62
     2
  6
DASHED
 10
763.734985
 20
450.579834
 11
757.463623
 21
450.579834
  0
LINE
  8
LC-006-012-----0
 62
     2
  6
DASHED
 10
768.035034
 20
448.079834
 11
753.035034
 21
448.079834
  0
LINE
  8
LC-006-012-----0
 62
     2
  6
DASHED
 10
762.535034
 20
435.779816
 11
758.535034
 21
435.779816
  0
LINE
  8
LC-006-012-----0
 62
     2
  6
DASHED
 10
764.434998
 20
450.367157
 11
764.434998
 21
448.079834
  0
LINE
  8
LC-006-012-----0
 62
     2
  6
DASHED
 10
756.635010
 20
450.367157
 11
756.635010
 21
448.079834
  0
LINE
  8
LC-006-012-----0
 62
     2
  6
DASHED
 10
763.285034
 20
440.079834
 11
757.785034
 21
440.079834
  0
LINE
  8
LC-006-012-----0
 62
     2
  6
DASHED
 10
763.285034
 20
440.079834
 11
763.535034
 21
440.329834
  0
LINE
  8
LC-006-012-----0
 62
     2
  6
DASHED
 10
757.785034
 20
440.079834
 11
757.535034
 21
440.329834
  0
LINE
  8
LC-006-012-----0
 62
     2
  6
DASHED
 10
763.535034
 20
440.329834
 11
757.535034
 21
440.329834
  0
LINE
  8
LC-006-012-----0
 62
     2
  6
DASHED
 10
762.785034
 20
440.079834
 11
762.785034
 21
436.029816
  0
LINE
  8
LC-006-012-----0
 62
     2
  6
DASHED
 10
758.285034
 20
440.079834
 11
758.285034
 21
436.029816
  0
ARC
  8
LC-006-012-----0
 62
     2
  6
DASHED
 10
762.535034
 20
436.029816
 40
0.250000
 50
269.999997
 51
0.000000
  0
ARC
  8
LC-006-012-----0
 62
     2
  6
DASHED
 10
758.535034
 20
436.029816
 40
0.250000
 50
180.000009
 51
269.999997
  0
LINE
  8
LC-006-012-----0
 62
     2
  6
DASHED
 10
763.535034
 20
447.579834
 11
757.535034
 21
447.579834
  0
LINE
  8
LC-006-012-----0
 62
     2
  6
DASHED
 10
762.785034
 20
447.579834
 11
762.785034
 21
448.079834
  0
LINE
  8
LC-006-012-----0
 62
     2
  6
DASHED
 10
758.285034
 20
447.579834
 11
758.285034
 21
448.079834
  0
LINE
  8
LC-006-012-----0
 62
     2
  6
DASHED
 10
763.035034
 20
448.079834
 11
763.035034
 21
450.367157
  0
LINE
  8
LC-006-012-----0
 62
     2
  6
DASHED
 10
758.035034
 20
448.079834
 11
758.035034
 21
450.367157
  0
ARC
  8
LC-006-012-----0
 62
     2
  6
DASHED
 10
760.535034
 20
435.779816
 40
14.800000
 50
80.275029
 51
99.724969
  0
ARC
  8
LC-006-012-----0
 62
     2
  6
DASHED
 10
757.335022
 20
449.360382
 40
1.226194
 50
55.188943
 51
124.811052
  0
ARC
  8
LC-006-012-----0
 62
     2
  6
DASHED
 10
763.734985
 20
449.360382
 40
1.226194
 50
55.188943
 51
124.811052
  0
LINE
  8
LC-006-012-----0
 62
     2
  6
DASHED
 10
768.035034
 20
467.079834
 11
768.035034
 21
448.079834
  0
LINE
  8
LC-006-012-----0
 62
     2
  6
DASHED
 10
753.035034
 20
467.079834
 11
753.035034
 21
448.079834
  0
LINE
  8
LC-004-006-----0
 62
     2
  6
DASHDOT
 10
760.535034
 20
471.119598
 11
760.535034
 21
434.231964
  0
LINE
  8
LC-004-006-----0
 62
     2
  6
DASHDOT
 10
516.828369
 20
211.709152
 11
540.101807
 21
211.709152
  0
CIRCLE
  8
LC-003-002-----0
 62
     1
  6
CONTINUOUS
 10
527.988037
 20
211.709152
 40
7.500000
  0
LINE
  8
LC-003-002-----0
 62
     1
  6
CONTINUOUS
 10
524.663025
 20
209.789474
 11
527.988037
 21
207.869781
  0
LINE
  8
LC-003-002-----0
 62
     1
  6
CONTINUOUS
 10
527.988037
 20
215.548538
 11
531.312988
 21
213.628845
  0
LINE
  8
LC-003-002-----0
 62
     1
  6
CONTINUOUS
 10
524.663025
 20
213.628845
 11
524.663025
 21
209.789474
  0
LINE
  8
LC-003-002-----0
 62
     1
  6
CONTINUOUS
 10
531.312988
 20
213.628845
 11
531.312988
 21
209.789474
  0
LINE
  8
LC-003-002-----0
 62
     1
  6
CONTINUOUS
 10
527.988037
 20
215.548538
 11
524.663025
 21
213.628845
  0
LINE
  8
LC-003-002-----0
 62
     1
  6
CONTINUOUS
 10
531.312988
 20
209.789474
 11
527.988037
 21
207.869781
  0
CIRCLE
  8
LC-003-002-----0
 62
     1
  6
CONTINUOUS
 10
527.988037
 20
211.709152
 40
3.325000
  0
LINE
  8
LC-004-006-----0
 62
     2
  6
DASHDOT
 10
527.988037
 20
223.895081
 11
527.988037
 21
199.206161
  0
LINE
  8
LC-003-002-----0
 62
     1
  6
CONTINUOUS
 10
614.488037
 20
453.079834
 11
600.488037
 21
467.079834
  0
LINE
  8
LC-006-012-----0
 62
     2
  6
DASHED
 10
704.035034
 20
453.079834
 11
817.035034
 21
453.079834
  0
LINE
  8
LC-003-002-----0
 62
     1
  6
CONTINUOUS
 10
600.488037
 20
268.209167
 11
600.488037
 21
155.209137
  0
ENDSEC
  0
EOF
